  0
SECTION
  2
HEADER
  9
$ACADVER
  1
AC1032
  9
$ACADMAINTVER
 90
       55
  9
$DWGCODEPAGE
  3
ANSI_936
  9
$LASTSAVEDBY
  1
56382
  9
$REQUIREDVERSIONS
160
                 0
  9
$INSBASE
 10
0.0
 20
0.0
 30
0.0
  9
$EXTMIN
 10
-50.83318645775809
 20
-233.5006597874223
 30
0.0
  9
$EXTMAX
 10
472.6384764857541
 20
107.8806559408386
 30
0.0
  9
$LIMMIN
 10
0.0
 20
0.0
  9
$LIMMAX
 10
12.0
 20
9.0
  9
$ORTHOMODE
 70
     1
  9
$REGENMODE
 70
     1
  9
$FILLMODE
 70
     1
  9
$QTEXTMODE
 70
     0
  9
$MIRRTEXT
 70
     0
  9
$LTSCALE
 40
1.0
  9
$ATTMODE
 70
     1
  9
$TEXTSIZE
 40
0.2
  9
$TRACEWID
 40
0.05
  9
$TEXTSTYLE
  7
STANDARD
  9
$CLAYER
  8
0
  9
$CELTYPE
  6
Continuous
  9
$CECOLOR
 62
   256
  9
$CELTSCALE
 40
1.0
  9
$DISPSILH
 70
     0
  9
$DIMSCALE
 40
1.0
  9
$DIMASZ
 40
0.18
  9
$DIMEXO
 40
0.0625
  9
$DIMDLI
 40
0.38
  9
$DIMRND
 40
0.0
  9
$DIMDLE
 40
0.0
  9
$DIMEXE
 40
0.18
  9
$DIMTP
 40
0.0
  9
$DIMTM
 40
0.0
  9
$DIMTXT
 40
0.18
  9
$DIMCEN
 40
0.09
  9
$DIMTSZ
 40
0.0
  9
$DIMTOL
 70
     0
  9
$DIMLIM
 70
     0
  9
$DIMTIH
 70
     1
  9
$DIMTOH
 70
     1
  9
$DIMSE1
 70
     0
  9
$DIMSE2
 70
     0
  9
$DIMTAD
 70
     0
  9
$DIMZIN
 70
     0
  9
$DIMBLK
  1

  9
$DIMASO
 70
     1
  9
$DIMSHO
 70
     1
  9
$DIMPOST
  1

  9
$DIMAPOST
  1

  9
$DIMALT
 70
     0
  9
$DIMALTD
 70
     2
  9
$DIMALTF
 40
25.4
  9
$DIMLFAC
 40
1.0
  9
$DIMTOFL
 70
     0
  9
$DIMTVP
 40
0.0
  9
$DIMTIX
 70
     0
  9
$DIMSOXD
 70
     0
  9
$DIMSAH
 70
     0
  9
$DIMBLK1
  1

  9
$DIMBLK2
  1

  9
$DIMSTYLE
  2
Standard
  9
$DIMCLRD
 70
     0
  9
$DIMCLRE
 70
     0
  9
$DIMCLRT
 70
     0
  9
$DIMTFAC
 40
1.0
  9
$DIMGAP
 40
0.09
  9
$DIMJUST
 70
     0
  9
$DIMSD1
 70
     0
  9
$DIMSD2
 70
     0
  9
$DIMTOLJ
 70
     1
  9
$DIMTZIN
 70
     0
  9
$DIMALTZ
 70
     0
  9
$DIMALTTZ
 70
     0
  9
$DIMUPT
 70
     0
  9
$DIMDEC
 70
     4
  9
$DIMTDEC
 70
     4
  9
$DIMALTU
 70
     2
  9
$DIMALTTD
 70
     2
  9
$DIMTXSTY
  7
STANDARD
  9
$DIMAUNIT
 70
     0
  9
$DIMADEC
 70
     0
  9
$DIMALTRND
 40
0.0
  9
$DIMAZIN
 70
     0
  9
$DIMDSEP
 70
    46
  9
$DIMATFIT
 70
     3
  9
$DIMFRAC
 70
     0
  9
$DIMLDRBLK
  1

  9
$DIMLUNIT
 70
     2
  9
$DIMLWD
 70
    -2
  9
$DIMLWE
 70
    -2
  9
$DIMTMOVE
 70
     0
  9
$DIMFXL
 40
1.0
  9
$DIMFXLON
 70
     0
  9
$DIMJOGANG
 40
0.7853981633974483
  9
$DIMTFILL
 70
     0
  9
$DIMTFILLCLR
 70
     0
  9
$DIMARCSYM
 70
     0
  9
$DIMLTYPE
  6

  9
$DIMLTEX1
  6

  9
$DIMLTEX2
  6

  9
$DIMTXTDIRECTION
 70
     0
  9
$LUNITS
 70
     2
  9
$LUPREC
 70
     4
  9
$SKETCHINC
 40
0.1
  9
$FILLETRAD
 40
0.0
  9
$AUNITS
 70
     0
  9
$AUPREC
 70
     0
  9
$MENU
  1
.
  9
$ELEVATION
 40
0.0
  9
$PELEVATION
 40
0.0
  9
$THICKNESS
 40
0.0
  9
$LIMCHECK
 70
     0
  9
$CHAMFERA
 40
0.5
  9
$CHAMFERB
 40
0.5
  9
$CHAMFERC
 40
0.0
  9
$CHAMFERD
 40
0.0
  9
$SKPOLY
 70
     0
  9
$TDCREATE
 40
2459989.837847222
  9
$TDUCREATE
 40
2459989.504513889
  9
$TDUPDATE
 40
2459989.964895833
  9
$TDUUPDATE
 40
2459989.631562500
  9
$TDINDWG
 40
0.1270486111
  9
$TDUSRTIMER
 40
0.1270486111
  9
$USRTIMER
 70
     1
  9
$ANGBASE
 50
0.0
  9
$ANGDIR
 70
     0
  9
$PDMODE
 70
     0
  9
$PDSIZE
 40
0.0
  9
$PLINEWID
 40
0.0
  9
$SPLFRAME
 70
     0
  9
$SPLINETYPE
 70
     6
  9
$SPLINESEGS
 70
     8
  9
$HANDSEED
  5
1030C
  9
$SURFTAB1
 70
     6
  9
$SURFTAB2
 70
     6
  9
$SURFTYPE
 70
     6
  9
$SURFU
 70
     6
  9
$SURFV
 70
     6
  9
$UCSBASE
  2

  9
$UCSNAME
  2

  9
$UCSORG
 10
0.0
 20
0.0
 30
0.0
  9
$UCSXDIR
 10
1.0
 20
0.0
 30
0.0
  9
$UCSYDIR
 10
0.0
 20
1.0
 30
0.0
  9
$UCSORTHOREF
  2

  9
$UCSORTHOVIEW
 70
     0
  9
$UCSORGTOP
 10
0.0
 20
0.0
 30
0.0
  9
$UCSORGBOTTOM
 10
0.0
 20
0.0
 30
0.0
  9
$UCSORGLEFT
 10
0.0
 20
0.0
 30
0.0
  9
$UCSORGRIGHT
 10
0.0
 20
0.0
 30
0.0
  9
$UCSORGFRONT
 10
0.0
 20
0.0
 30
0.0
  9
$UCSORGBACK
 10
0.0
 20
0.0
 30
0.0
  9
$PUCSBASE
  2

  9
$PUCSNAME
  2

  9
$PUCSORG
 10
0.0
 20
0.0
 30
0.0
  9
$PUCSXDIR
 10
1.0
 20
0.0
 30
0.0
  9
$PUCSYDIR
 10
0.0
 20
1.0
 30
0.0
  9
$PUCSORTHOREF
  2

  9
$PUCSORTHOVIEW
 70
     0
  9
$PUCSORGTOP
 10
0.0
 20
0.0
 30
0.0
  9
$PUCSORGBOTTOM
 10
0.0
 20
0.0
 30
0.0
  9
$PUCSORGLEFT
 10
0.0
 20
0.0
 30
0.0
  9
$PUCSORGRIGHT
 10
0.0
 20
0.0
 30
0.0
  9
$PUCSORGFRONT
 10
0.0
 20
0.0
 30
0.0
  9
$PUCSORGBACK
 10
0.0
 20
0.0
 30
0.0
  9
$USERI1
 70
     0
  9
$USERI2
 70
     0
  9
$USERI3
 70
     0
  9
$USERI4
 70
     0
  9
$USERI5
 70
     0
  9
$USERR1
 40
0.0
  9
$USERR2
 40
0.0
  9
$USERR3
 40
0.0
  9
$USERR4
 40
0.0
  9
$USERR5
 40
0.0
  9
$WORLDVIEW
 70
     1
  9
$SHADEDGE
 70
     3
  9
$SHADEDIF
 70
    70
  9
$TILEMODE
 70
     1
  9
$MAXACTVP
 70
    64
  9
$PINSBASE
 10
0.0
 20
0.0
 30
0.0
  9
$PLIMCHECK
 70
     0
  9
$PEXTMIN
 10
1.000000000000000E+20
 20
1.000000000000000E+20
 30
1.000000000000000E+20
  9
$PEXTMAX
 10
-1.000000000000000E+20
 20
-1.000000000000000E+20
 30
-1.000000000000000E+20
  9
$PLIMMIN
 10
0.0
 20
0.0
  9
$PLIMMAX
 10
12.0
 20
9.0
  9
$UNITMODE
 70
     0
  9
$VISRETAIN
 70
     1
  9
$PLINEGEN
 70
     0
  9
$PSLTSCALE
 70
     1
  9
$TREEDEPTH
 70
  3020
  9
$CMLSTYLE
  2
Standard
  9
$CMLJUST
 70
     0
  9
$CMLSCALE
 40
1.0
  9
$PROXYGRAPHICS
 70
     1
  9
$MEASUREMENT
 70
     0
  9
$CELWEIGHT
370
    -1
  9
$ENDCAPS
280
     0
  9
$JOINSTYLE
280
     0
  9
$LWDISPLAY
290
     0
  9
$INSUNITS
 70
     4
  9
$HYPERLINKBASE
  1

  9
$STYLESHEET
  1

  9
$XEDIT
290
     1
  9
$CEPSNTYPE
380
     0
  9
$PSTYLEMODE
290
     1
  9
$FINGERPRINTGUID
  2
{F90BFCBB-C68A-6F42-9D9A-3D1CCD88D7A7}
  9
$VERSIONGUID
  2
{DC0B3215-26AF-4245-99C8-E12816384E59}
  9
$EXTNAMES
290
     1
  9
$PSVPSCALE
 40
0.0
  9
$OLESTARTUP
290
     0
  9
$SORTENTS
280
   127
  9
$INDEXCTL
280
     0
  9
$HIDETEXT
280
     0
  9
$XCLIPFRAME
280
     2
  9
$HALOGAP
280
     0
  9
$OBSCOLOR
 70
   257
  9
$OBSLTYPE
280
     0
  9
$INTERSECTIONDISPLAY
280
     0
  9
$INTERSECTIONCOLOR
 70
   257
  9
$DIMASSOC
280
     1
  9
$PROJECTNAME
  1

  9
$CAMERADISPLAY
290
     0
  9
$LENSLENGTH
 40
50.0
  9
$CAMERAHEIGHT
 40
0.0
  9
$STEPSPERSEC
 40
2.0
  9
$STEPSIZE
 40
6.0
  9
$3DDWFPREC
 40
2.0
  9
$PSOLWIDTH
 40
0.25
  9
$PSOLHEIGHT
 40
4.0
  9
$LOFTANG1
 40
1.570796326794896
  9
$LOFTANG2
 40
1.570796326794896
  9
$LOFTMAG1
 40
0.0
  9
$LOFTMAG2
 40
0.0
  9
$LOFTPARAM
 70
     7
  9
$LOFTNORMALS
280
     1
  9
$LATITUDE
 40
37.795
  9
$LONGITUDE
 40
-122.394
  9
$NORTHDIRECTION
 40
0.0
  9
$TIMEZONE
 70
 -8000
  9
$LIGHTGLYPHDISPLAY
280
     1
  9
$TILEMODELIGHTSYNCH
280
     1
  9
$CMATERIAL
347
10005
  9
$SOLIDHIST
280
     0
  9
$SHOWHIST
280
     1
  9
$DWFFRAME
280
     2
  9
$DGNFRAME
280
     0
  9
$REALWORLDSCALE
290
     1
  9
$INTERFERECOLOR
 62
     1
  9
$INTERFEREOBJVS
345
10027
  9
$INTERFEREVPVS
346
10024
  9
$CSHADOW
280
     0
  9
$SHADOWPLANELOCATION
 40
0.0
  0
ENDSEC
  0
SECTION
  2
CLASSES
  0
CLASS
  1
ACDBDICTIONARYWDFLT
  2
AcDbDictionaryWithDefault
  3
ObjectDBX Classes
 90
        0
 91
        1
280
     0
281
     0
  0
CLASS
  1
MATERIAL
  2
AcDbMaterial
  3
ObjectDBX Classes
 90
     1153
 91
        3
280
     0
281
     0
  0
CLASS
  1
VISUALSTYLE
  2
AcDbVisualStyle
  3
ObjectDBX Classes
 90
     4095
 91
       24
280
     0
281
     0
  0
CLASS
  1
TABLESTYLE
  2
AcDbTableStyle
  3
ObjectDBX Classes
 90
     4095
 91
        1
280
     0
281
     0
  0
CLASS
  1
SCALE
  2
AcDbScale
  3
ObjectDBX Classes
 90
     1153
 91
       17
280
     0
281
     0
  0
CLASS
  1
MLEADERSTYLE
  2
AcDbMLeaderStyle
  3
ACDB_MLEADERSTYLE_CLASS
 90
     4095
 91
        1
280
     0
281
     0
  0
CLASS
  1
ACDBSECTIONVIEWSTYLE
  2
AcDbSectionViewStyle
  3
ObjectDBX Classes
 90
     1025
 91
        1
280
     0
281
     0
  0
CLASS
  1
ACDBDETAILVIEWSTYLE
  2
AcDbDetailViewStyle
  3
ObjectDBX Classes
 90
     1025
 91
        1
280
     0
281
     0
  0
CLASS
  1
DICTIONARYVAR
  2
AcDbDictionaryVar
  3
ObjectDBX Classes
 90
        0
 91
       29
280
     0
281
     0
  0
CLASS
  1
SORTENTSTABLE
  2
AcDbSortentsTable
  3
ObjectDBX Classes
 90
        0
 91
        1
280
     0
281
     0
  0
CLASS
  1
ACARRAYJIGENTITY
  2
AcArrayJigEntity
  3
ACAD_ARRAY
 90
      129
 91
        4
280
     0
281
     1
  0
CLASS
  1
ACDBASSOCNETWORK
  2
AcDbAssocNetwork
  3
ObjectDBX Classes
 90
     1025
 91
        2
280
     0
281
     0
  0
CLASS
  1
ACDBASSOCACTION
  2
AcDbAssocAction
  3
ObjectDBX Classes
 90
     1025
 91
       22
280
     0
281
     0
  0
CLASS
  1
ACDBASSOCARRAYACTIONBODY
  2
AcDbAssocArrayActionBody
  3
ObjectDBX Classes
 90
     1025
 91
       22
280
     0
281
     0
  0
CLASS
  1
ACDBASSOCVERTEXACTIONPARAM
  2
AcDbAssocVertexActionParam
  3
ObjectDBX Classes
 90
     1025
 91
       66
280
     0
281
     0
  0
CLASS
  1
ACDBASSOCDEPENDENCY
  2
AcDbAssocDependency
  3
ObjectDBX Classes
 90
     1025
 91
       66
280
     0
281
     0
  0
CLASS
  1
ACDBASSOCARRAYRECTANGULARPARAMETERS
  2
AcDbAssocArrayRectangularParameters
  3
ObjectDBX Classes
 90
     1025
 91
        0
280
     0
281
     0
  0
CLASS
  1
CELLSTYLEMAP
  2
AcDbCellStyleMap
  3
ObjectDBX Classes
 90
     1152
 91
        3
280
     0
281
     0
  0
ENDSEC
  0
SECTION
  2
TABLES
  0
TABLE
  2
VPORT
  5
8
330
0
100
AcDbSymbolTable
 70
     1
  0
VPORT
  5
10059
330
8
100
AcDbSymbolTableRecord
100
AcDbViewportTableRecord
  2
*Active
 70
     0
 10
0.0
 20
0.0
 11
1.0
 21
1.0
 12
120.1492957318655
 22
-93.62788883600444
 13
0.0
 23
0.0
 14
1.0
 24
1.0
 15
0.0
 25
0.0
 16
0.0
 26
0.0
 36
1.0
 17
0.0
 27
0.0
 37
0.0
 40
503.2088609946597
 41
2.090520922288642
 42
50.0
 43
0.0
 44
0.0
 50
0.0
 51
0.0
 71
     0
 72
  1000
 73
     1
 74
     3
 75
     0
 76
     0
 77
     0
 78
     0
281
     0
 65
     1
110
0.0
120
0.0
130
0.0
111
1.0
121
0.0
131
0.0
112
0.0
122
1.0
132
0.0
 79
     0
146
0.0
348
10023
 60
     3
 61
     5
292
     1
282
     1
141
0.0
142
0.0
 63
   250
421
  3355443
1001
ACAD_NAV_VCDISPLAY
1070
     1
  0
ENDTAB
  0
TABLE
  2
LTYPE
  5
5
330
0
100
AcDbSymbolTable
 70
     2
  0
LTYPE
  5
14
330
5
100
AcDbSymbolTableRecord
100
AcDbLinetypeTableRecord
  2
BYBLOCK
 70
     0
  3

 72
    65
 73
     0
 40
0.0
  0
LTYPE
  5
15
330
5
100
AcDbSymbolTableRecord
100
AcDbLinetypeTableRecord
  2
BYLAYER
 70
     0
  3

 72
    65
 73
     0
 40
0.0
  0
LTYPE
  5
10001
330
5
100
AcDbSymbolTableRecord
100
AcDbLinetypeTableRecord
  2
Continuous
 70
     0
  3
Solid line
 72
    65
 73
     0
 40
0.0
  0
ENDTAB
  0
TABLE
  2
LAYER
  5
2
102
{ACAD_XDICTIONARY
360
10133
102
}
330
0
100
AcDbSymbolTable
 70
     1
  0
LAYER
  5
50
102
{ACAD_XDICTIONARY
360
1012E
102
}
330
2
100
AcDbSymbolTableRecord
100
AcDbLayerTableRecord
  2
0
 70
     0
 62
     7
  6
Continuous
370
    -3
390
10003
347
10015
348
0
  0
ENDTAB
  0
TABLE
  2
STYLE
  5
3
330
0
100
AcDbSymbolTable
 70
     1
  0
STYLE
  5
11
330
3
100
AcDbSymbolTableRecord
100
AcDbTextStyleTableRecord
  2
STANDARD
 70
     0
 40
0.0
 41
1.0
 50
0.0
 71
     0
 42
0.2
  3

  4

  0
ENDTAB
  0
TABLE
  2
VIEW
  5
6
330
0
100
AcDbSymbolTable
 70
     3
  0
ENDTAB
  0
TABLE
  2
UCS
  5
7
330
0
100
AcDbSymbolTable
 70
     0
  0
ENDTAB
  0
TABLE
  2
APPID
  5
9
330
0
100
AcDbSymbolTable
 70
     2
  0
APPID
  5
12
330
9
100
AcDbSymbolTableRecord
100
AcDbRegAppTableRecord
  2
ACAD
 70
     0
  0
APPID
  5
10058
330
9
100
AcDbSymbolTableRecord
100
AcDbRegAppTableRecord
  2
ACAD_NAV_VCDISPLAY
 70
     0
  0
ENDTAB
  0
TABLE
  2
DIMSTYLE
  5
A
330
0
100
AcDbSymbolTable
 70
     2
100
AcDbDimStyleTable
 71
     1
340
10053
  0
DIMSTYLE
105
10053
330
A
100
AcDbSymbolTableRecord
100
AcDbDimStyleTableRecord
  2
Standard
 70
     0
340
11
  0
ENDTAB
  0
TABLE
  2
BLOCK_RECORD
  5
1
330
0
100
AcDbSymbolTable
 70
    51
  0
BLOCK_RECORD
  5
1F
102
{ACAD_XDICTIONARY
360
10080
102
}
330
1
100
AcDbSymbolTableRecord
100
AcDbBlockTableRecord
  2
*MODEL_SPACE
340
10055
 70
     0
280
     1
281
     0
  0
BLOCK_RECORD
  5
1B
330
1
100
AcDbSymbolTableRecord
100
AcDbBlockTableRecord
  2
*PAPER_SPACE
340
10056
 70
     0
280
     1
281
     0
  0
BLOCK_RECORD
  5
100BD
102
{ACAD_REACTORS
330
100CF
102
}
330
1
100
AcDbSymbolTableRecord
100
AcDbBlockTableRecord
  2
*U2
340
0
102
{BLKREFS
331
100D4
331
100D5
331
100D6
331
100D7
331
100D8
331
100D9
102
}
 70
     0
280
     1
281
     0
  0
BLOCK_RECORD
  5
100C0
102
{ACAD_REACTORS
330
100CE
102
}
330
1
100
AcDbSymbolTableRecord
100
AcDbBlockTableRecord
  2
*U3
340
0
102
{BLKREFS
331
100C3
102
}
 70
     0
280
     1
281
     1
  0
BLOCK_RECORD
  5
100DB
102
{ACAD_REACTORS
330
100ED
102
}
330
1
100
AcDbSymbolTableRecord
100
AcDbBlockTableRecord
  2
*U4
340
0
102
{BLKREFS
331
100E3
331
100E4
331
100E5
331
100E6
331
100E7
331
100E8
102
}
 70
     0
280
     1
281
     0
  0
BLOCK_RECORD
  5
100E1
102
{ACAD_REACTORS
330
100EC
102
}
330
1
100
AcDbSymbolTableRecord
100
AcDbBlockTableRecord
  2
*U6
340
0
102
{BLKREFS
331
100DA
102
}
 70
     0
280
     1
281
     1
  0
BLOCK_RECORD
  5
100F8
102
{ACAD_REACTORS
330
10108
102
}
330
1
100
AcDbSymbolTableRecord
100
AcDbBlockTableRecord
  2
*U7
340
0
102
{BLKREFS
331
1010C
331
1010D
331
1010E
331
1010F
331
10110
331
10111
102
}
 70
     0
280
     1
281
     0
  0
BLOCK_RECORD
  5
100FB
102
{ACAD_REACTORS
330
10107
102
}
330
1
100
AcDbSymbolTableRecord
100
AcDbBlockTableRecord
  2
*U8
340
0
102
{BLKREFS
331
100FE
102
}
 70
     0
280
     1
281
     1
  0
BLOCK_RECORD
  5
10113
102
{ACAD_REACTORS
330
10127
102
}
330
1
100
AcDbSymbolTableRecord
100
AcDbBlockTableRecord
  2
*U9
340
0
102
{BLKREFS
331
1011D
331
1011E
331
1011F
331
10120
331
10121
331
10122
102
}
 70
     0
280
     1
281
     0
  0
BLOCK_RECORD
  5
1011B
102
{ACAD_REACTORS
330
10126
102
}
330
1
100
AcDbSymbolTableRecord
100
AcDbBlockTableRecord
  2
*U11
340
0
102
{BLKREFS
331
10112
102
}
 70
     0
280
     1
281
     1
  0
BLOCK_RECORD
  5
10152
102
{ACAD_REACTORS
330
10164
102
}
330
1
100
AcDbSymbolTableRecord
100
AcDbBlockTableRecord
  2
*U12
340
0
102
{BLKREFS
331
1015A
331
1015B
331
1015C
331
1015D
331
1015E
331
1015F
102
}
 70
     0
280
     1
281
     0
  0
BLOCK_RECORD
  5
10158
102
{ACAD_REACTORS
330
10163
102
}
330
1
100
AcDbSymbolTableRecord
100
AcDbBlockTableRecord
  2
*U14
340
0
102
{BLKREFS
331
1014E
102
}
 70
     0
280
     1
281
     1
  0
BLOCK_RECORD
  5
10169
102
{ACAD_REACTORS
330
10179
102
}
330
1
100
AcDbSymbolTableRecord
100
AcDbBlockTableRecord
  2
*U15
340
0
102
{BLKREFS
331
1016F
331
10170
331
10171
331
10172
331
10173
331
10174
102
}
 70
     0
280
     1
281
     0
  0
BLOCK_RECORD
  5
1016D
102
{ACAD_REACTORS
330
10178
102
}
330
1
100
AcDbSymbolTableRecord
100
AcDbBlockTableRecord
  2
*U16
340
0
102
{BLKREFS
331
1014F
102
}
 70
     0
280
     1
281
     1
  0
BLOCK_RECORD
  5
1017E
102
{ACAD_REACTORS
330
10190
102
}
330
1
100
AcDbSymbolTableRecord
100
AcDbBlockTableRecord
  2
*U17
340
0
102
{BLKREFS
331
10186
331
10187
331
10188
331
10189
331
1018A
331
1018B
102
}
 70
     0
280
     1
281
     0
  0
BLOCK_RECORD
  5
10184
102
{ACAD_REACTORS
330
1018F
102
}
330
1
100
AcDbSymbolTableRecord
100
AcDbBlockTableRecord
  2
*U18
340
0
102
{BLKREFS
331
10150
102
}
 70
     0
280
     1
281
     1
  0
BLOCK_RECORD
  5
10195
102
{ACAD_REACTORS
330
101A7
102
}
330
1
100
AcDbSymbolTableRecord
100
AcDbBlockTableRecord
  2
*U19
340
0
102
{BLKREFS
331
1019D
331
1019E
331
1019F
331
101A0
331
101A1
331
101A2
102
}
 70
     0
280
     1
281
     0
  0
BLOCK_RECORD
  5
1019B
102
{ACAD_REACTORS
330
101A6
102
}
330
1
100
AcDbSymbolTableRecord
100
AcDbBlockTableRecord
  2
*U20
340
0
102
{BLKREFS
331
10151
102
}
 70
     0
280
     1
281
     1
  0
BLOCK_RECORD
  5
101B2
330
1
100
AcDbSymbolTableRecord
100
AcDbBlockTableRecord
  2
*U21
340
0
102
{BLKREFS
331
101BA
331
101BB
331
101BC
331
101BD
331
101BE
331
101BF
102
}
 70
     0
280
     1
281
     0
  0
BLOCK_RECORD
  5
101B8
330
1
100
AcDbSymbolTableRecord
100
AcDbBlockTableRecord
  2
*U23
340
0
 70
     0
280
     1
281
     1
  0
BLOCK_RECORD
  5
101C9
102
{ACAD_REACTORS
330
101D9
102
}
330
1
100
AcDbSymbolTableRecord
100
AcDbBlockTableRecord
  2
*U24
340
0
102
{BLKREFS
331
101CF
331
101D0
331
101D1
331
101D2
331
101D3
331
101D4
102
}
 70
     0
280
     1
281
     0
  0
BLOCK_RECORD
  5
101CD
102
{ACAD_REACTORS
330
101D8
102
}
330
1
100
AcDbSymbolTableRecord
100
AcDbBlockTableRecord
  2
*U25
340
0
102
{BLKREFS
331
101AF
102
}
 70
     0
280
     1
281
     1
  0
BLOCK_RECORD
  5
101DE
330
1
100
AcDbSymbolTableRecord
100
AcDbBlockTableRecord
  2
*U26
340
0
102
{BLKREFS
331
101E6
331
101E7
331
101E8
331
101E9
331
101EA
331
101EB
102
}
 70
     0
280
     1
281
     0
  0
BLOCK_RECORD
  5
101E4
330
1
100
AcDbSymbolTableRecord
100
AcDbBlockTableRecord
  2
*U27
340
0
 70
     0
280
     1
281
     1
  0
BLOCK_RECORD
  5
101F5
102
{ACAD_REACTORS
330
10207
102
}
330
1
100
AcDbSymbolTableRecord
100
AcDbBlockTableRecord
  2
*U28
340
0
102
{BLKREFS
331
101FD
331
101FE
331
101FF
331
10200
331
10201
331
10202
102
}
 70
     0
280
     1
281
     0
  0
BLOCK_RECORD
  5
101FB
102
{ACAD_REACTORS
330
10206
102
}
330
1
100
AcDbSymbolTableRecord
100
AcDbBlockTableRecord
  2
*U29
340
0
102
{BLKREFS
331
101B1
102
}
 70
     0
280
     1
281
     1
  0
BLOCK_RECORD
  5
10218
102
{ACAD_REACTORS
330
1022A
102
}
330
1
100
AcDbSymbolTableRecord
100
AcDbBlockTableRecord
  2
*U30
340
0
102
{BLKREFS
331
10220
331
10221
331
10222
331
10223
331
10224
331
10225
102
}
 70
     0
280
     1
281
     0
  0
BLOCK_RECORD
  5
1021E
102
{ACAD_REACTORS
330
10229
102
}
330
1
100
AcDbSymbolTableRecord
100
AcDbBlockTableRecord
  2
*U32
340
0
102
{BLKREFS
331
1020E
102
}
 70
     0
280
     1
281
     1
  0
BLOCK_RECORD
  5
1022F
102
{ACAD_REACTORS
330
1023F
102
}
330
1
100
AcDbSymbolTableRecord
100
AcDbBlockTableRecord
  2
*U33
340
0
102
{BLKREFS
331
10235
331
10236
331
10237
331
10238
331
10239
331
1023A
102
}
 70
     0
280
     1
281
     0
  0
BLOCK_RECORD
  5
10233
102
{ACAD_REACTORS
330
1023E
102
}
330
1
100
AcDbSymbolTableRecord
100
AcDbBlockTableRecord
  2
*U34
340
0
102
{BLKREFS
331
1020F
102
}
 70
     0
280
     1
281
     1
  0
BLOCK_RECORD
  5
10244
102
{ACAD_REACTORS
330
10256
102
}
330
1
100
AcDbSymbolTableRecord
100
AcDbBlockTableRecord
  2
*U35
340
0
102
{BLKREFS
331
1024C
331
1024D
331
1024E
331
1024F
331
10250
331
10251
102
}
 70
     0
280
     1
281
     0
  0
BLOCK_RECORD
  5
1024A
102
{ACAD_REACTORS
330
10255
102
}
330
1
100
AcDbSymbolTableRecord
100
AcDbBlockTableRecord
  2
*U36
340
0
102
{BLKREFS
331
10210
102
}
 70
     0
280
     1
281
     1
  0
BLOCK_RECORD
  5
1025B
102
{ACAD_REACTORS
330
1026D
102
}
330
1
100
AcDbSymbolTableRecord
100
AcDbBlockTableRecord
  2
*U37
340
0
102
{BLKREFS
331
10263
331
10264
331
10265
331
10266
331
10267
331
10268
102
}
 70
     0
280
     1
281
     0
  0
BLOCK_RECORD
  5
10261
102
{ACAD_REACTORS
330
1026C
102
}
330
1
100
AcDbSymbolTableRecord
100
AcDbBlockTableRecord
  2
*U38
340
0
102
{BLKREFS
331
10211
102
}
 70
     0
280
     1
281
     1
  0
BLOCK_RECORD
  5
10272
102
{ACAD_REACTORS
330
10282
102
}
330
1
100
AcDbSymbolTableRecord
100
AcDbBlockTableRecord
  2
*U39
340
0
102
{BLKREFS
331
10278
331
10279
331
1027A
331
1027B
331
1027C
331
1027D
102
}
 70
     0
280
     1
281
     0
  0
BLOCK_RECORD
  5
10276
102
{ACAD_REACTORS
330
10281
102
}
330
1
100
AcDbSymbolTableRecord
100
AcDbBlockTableRecord
  2
*U40
340
0
102
{BLKREFS
331
10212
102
}
 70
     0
280
     1
281
     1
  0
BLOCK_RECORD
  5
10287
102
{ACAD_REACTORS
330
10297
102
}
330
1
100
AcDbSymbolTableRecord
100
AcDbBlockTableRecord
  2
*U41
340
0
102
{BLKREFS
331
1028D
331
1028E
331
1028F
331
10290
331
10291
331
10292
102
}
 70
     0
280
     1
281
     0
  0
BLOCK_RECORD
  5
1028B
102
{ACAD_REACTORS
330
10296
102
}
330
1
100
AcDbSymbolTableRecord
100
AcDbBlockTableRecord
  2
*U42
340
0
102
{BLKREFS
331
10213
102
}
 70
     0
280
     1
281
     1
  0
BLOCK_RECORD
  5
1029C
102
{ACAD_REACTORS
330
102AE
102
}
330
1
100
AcDbSymbolTableRecord
100
AcDbBlockTableRecord
  2
*U43
340
0
102
{BLKREFS
331
102A4
331
102A5
331
102A6
331
102A7
331
102A8
331
102A9
102
}
 70
     0
280
     1
281
     0
  0
BLOCK_RECORD
  5
102A2
102
{ACAD_REACTORS
330
102AD
102
}
330
1
100
AcDbSymbolTableRecord
100
AcDbBlockTableRecord
  2
*U44
340
0
102
{BLKREFS
331
10214
102
}
 70
     0
280
     1
281
     1
  0
BLOCK_RECORD
  5
102B3
102
{ACAD_REACTORS
330
102C5
102
}
330
1
100
AcDbSymbolTableRecord
100
AcDbBlockTableRecord
  2
*U45
340
0
102
{BLKREFS
331
102BB
331
102BC
331
102BD
331
102BE
331
102BF
331
102C0
102
}
 70
     0
280
     1
281
     0
  0
BLOCK_RECORD
  5
102B9
102
{ACAD_REACTORS
330
102C4
102
}
330
1
100
AcDbSymbolTableRecord
100
AcDbBlockTableRecord
  2
*U46
340
0
102
{BLKREFS
331
10215
102
}
 70
     0
280
     1
281
     1
  0
BLOCK_RECORD
  5
102CA
102
{ACAD_REACTORS
330
102DA
102
}
330
1
100
AcDbSymbolTableRecord
100
AcDbBlockTableRecord
  2
*U47
340
0
102
{BLKREFS
331
102D0
331
102D1
331
102D2
331
102D3
331
102D4
331
102D5
102
}
 70
     0
280
     1
281
     0
  0
BLOCK_RECORD
  5
102CE
102
{ACAD_REACTORS
330
102D9
102
}
330
1
100
AcDbSymbolTableRecord
100
AcDbBlockTableRecord
  2
*U48
340
0
102
{BLKREFS
331
10216
102
}
 70
     0
280
     1
281
     1
  0
BLOCK_RECORD
  5
102DF
102
{ACAD_REACTORS
330
102F1
102
}
330
1
100
AcDbSymbolTableRecord
100
AcDbBlockTableRecord
  2
*U49
340
0
102
{BLKREFS
331
102E7
331
102E8
331
102E9
331
102EA
331
102EB
331
102EC
102
}
 70
     0
280
     1
281
     0
  0
BLOCK_RECORD
  5
102E5
102
{ACAD_REACTORS
330
102F0
102
}
330
1
100
AcDbSymbolTableRecord
100
AcDbBlockTableRecord
  2
*U50
340
0
102
{BLKREFS
331
10217
102
}
 70
     0
280
     1
281
     1
  0
ENDTAB
  0
ENDSEC
  0
SECTION
  2
BLOCKS
  0
BLOCK
  5
20
330
1F
100
AcDbEntity
  8
0
100
AcDbBlockBegin
  2
*MODEL_SPACE
 70
     0
 10
0.0
 20
0.0
 30
0.0
  3
*MODEL_SPACE
  1

  0
ENDBLK
  5
21
330
1F
100
AcDbEntity
  8
0
100
AcDbBlockEnd
  0
BLOCK
  5
1C
330
1B
100
AcDbEntity
 67
     1
  8
0
100
AcDbBlockBegin
  2
*PAPER_SPACE
 70
     0
 10
0.0
 20
0.0
 30
0.0
  3
*PAPER_SPACE
  1

  0
ENDBLK
  5
1D
330
1B
100
AcDbEntity
 67
     1
  8
0
100
AcDbBlockEnd
  0
BLOCK
  5
100BE
330
100BD
100
AcDbEntity
  8
0
100
AcDbBlockBegin
  2
*U2
 70
     1
 10
0.0
 20
0.0
 30
0.0
  3
*U2
  1

  0
LWPOLYLINE
  5
100C4
330
100BD
100
AcDbEntity
  8
0
100
AcDbPolyline
 90
       16
 70
     1
 43
0.0
 10
25.00000000000001
 20
25.0
 42
0.4142135623730951
 10
-25.0
 20
-25.0
 10
-18.46666666666665
 20
-25.0
 10
-17.96666666666666
 20
-24.5
 10
-17.96666666666666
 20
-21.0
 10
-15.36666666666666
 20
-21.0
 10
-15.36666666666666
 20
-24.5
 10
-14.86666666666666
 20
-25.0
 10
-8.333333333333332
 20
-25.0
 42
-0.4142135623730951
 10
25.0
 20
8.333333333333339
 10
25.0
 20
14.86666666666667
 10
24.50000000000001
 20
15.36666666666667
 10
21.00000000000001
 20
15.36666666666667
 10
21.0
 20
17.96666666666666
 10
24.50000000000001
 20
17.96666666666666
 10
25.0
 20
18.46666666666666
  0
ENDBLK
  5
100BF
330
100BD
100
AcDbEntity
  8
0
100
AcDbBlockEnd
  0
BLOCK
  5
100C1
330
100C0
100
AcDbEntity
  8
0
100
AcDbBlockBegin
  2
*U3
 70
     1
 10
0.0
 20
0.0
 30
0.0
  3
*U3
  1

  0
INSERT
  5
100D4
330
100C0
100
AcDbEntity
  8
0
  6
ByBlock
347
1000D
 62
     0
440
 16777216
370
    -2
380
     1
100
AcDbBlockReference
  2
*U2
 10
0.0
 20
0.0
 30
0.0
  0
INSERT
  5
100D5
330
100C0
100
AcDbEntity
  8
0
  6
ByBlock
347
1000D
 62
     0
440
 16777216
370
    -2
380
     1
100
AcDbBlockReference
  2
*U2
 10
42.71918650631437
 20
0.0
 30
0.0
  0
INSERT
  5
100D6
330
100C0
100
AcDbEntity
  8
0
  6
ByBlock
347
1000D
 62
     0
440
 16777216
370
    -2
380
     1
100
AcDbBlockReference
  2
*U2
 10
85.43837301262874
 20
0.0
 30
0.0
  0
INSERT
  5
100D7
330
100C0
100
AcDbEntity
  8
0
  6
ByBlock
347
1000D
 62
     0
440
 16777216
370
    -2
380
     1
100
AcDbBlockReference
  2
*U2
 10
128.1575595189431
 20
0.0
 30
0.0
  0
INSERT
  5
100D8
330
100C0
100
AcDbEntity
  8
0
  6
ByBlock
347
1000D
 62
     0
440
 16777216
370
    -2
380
     1
100
AcDbBlockReference
  2
*U2
 10
170.8767460252575
 20
0.0
 30
0.0
  0
INSERT
  5
100D9
330
100C0
100
AcDbEntity
  8
0
  6
ByBlock
347
1000D
 62
     0
440
 16777216
370
    -2
380
     1
100
AcDbBlockReference
  2
*U2
 10
213.5959325315718
 20
0.0
 30
0.0
  0
ENDBLK
  5
100C2
330
100C0
100
AcDbEntity
  8
0
100
AcDbBlockEnd
  0
BLOCK
  5
100DC
330
100DB
100
AcDbEntity
  8
0
100
AcDbBlockBegin
  2
*U4
 70
     1
 10
0.0
 20
0.0
 30
0.0
  3
*U4
  1

  0
LWPOLYLINE
  5
100DD
330
100DB
100
AcDbEntity
  8
0
100
AcDbPolyline
 90
       16
 70
     1
 43
0.0
 10
25.00000000000001
 20
25.0
 42
0.4142135623730951
 10
-25.0
 20
-25.0
 10
-18.46666666666665
 20
-25.0
 10
-17.96666666666666
 20
-24.5
 10
-17.96666666666666
 20
-21.0
 10
-15.36666666666666
 20
-21.0
 10
-15.36666666666666
 20
-24.5
 10
-14.86666666666666
 20
-25.0
 10
-8.333333333333332
 20
-25.0
 42
-0.4142135623730951
 10
25.0
 20
8.333333333333339
 10
25.0
 20
14.86666666666667
 10
24.50000000000001
 20
15.36666666666667
 10
21.00000000000001
 20
15.36666666666667
 10
21.0
 20
17.96666666666666
 10
24.50000000000001
 20
17.96666666666666
 10
25.0
 20
18.46666666666666
  0
ENDBLK
  5
100DE
330
100DB
100
AcDbEntity
  8
0
100
AcDbBlockEnd
  0
BLOCK
  5
100E2
330
100E1
100
AcDbEntity
  8
0
100
AcDbBlockBegin
  2
*U6
 70
     1
 10
0.0
 20
0.0
 30
0.0
  3
*U6
  1

  0
INSERT
  5
100E3
330
100E1
100
AcDbEntity
  8
0
  6
ByBlock
347
1000D
 62
     0
440
 16777216
370
    -2
380
     1
100
AcDbBlockReference
  2
*U4
 10
0.0
 20
0.0
 30
0.0
  0
INSERT
  5
100E4
330
100E1
100
AcDbEntity
  8
0
  6
ByBlock
347
1000D
 62
     0
440
 16777216
370
    -2
380
     1
100
AcDbBlockReference
  2
*U4
 10
42.71918650631437
 20
0.0
 30
0.0
  0
INSERT
  5
100E5
330
100E1
100
AcDbEntity
  8
0
  6
ByBlock
347
1000D
 62
     0
440
 16777216
370
    -2
380
     1
100
AcDbBlockReference
  2
*U4
 10
85.43837301262874
 20
0.0
 30
0.0
  0
INSERT
  5
100E6
330
100E1
100
AcDbEntity
  8
0
  6
ByBlock
347
1000D
 62
     0
440
 16777216
370
    -2
380
     1
100
AcDbBlockReference
  2
*U4
 10
128.1575595189431
 20
0.0
 30
0.0
  0
INSERT
  5
100E7
330
100E1
100
AcDbEntity
  8
0
  6
ByBlock
347
1000D
 62
     0
440
 16777216
370
    -2
380
     1
100
AcDbBlockReference
  2
*U4
 10
170.8767460252575
 20
0.0
 30
0.0
  0
INSERT
  5
100E8
330
100E1
100
AcDbEntity
  8
0
  6
ByBlock
347
1000D
 62
     0
440
 16777216
370
    -2
380
     1
100
AcDbBlockReference
  2
*U4
 10
213.5959325315718
 20
0.0
 30
0.0
  0
ENDBLK
  5
100E9
330
100E1
100
AcDbEntity
  8
0
100
AcDbBlockEnd
  0
BLOCK
  5
100F9
330
100F8
100
AcDbEntity
  8
0
100
AcDbBlockBegin
  2
*U7
 70
     1
 10
0.0
 20
0.0
 30
0.0
  3
*U7
  1

  0
LWPOLYLINE
  5
100FF
330
100F8
100
AcDbEntity
  8
0
100
AcDbPolyline
 90
       14
 70
     0
 43
0.0
 10
9.999999999999992
 20
-5.999999999999984
 10
9.999999999999992
 20
-1.800000000000002
 10
9.499999999999992
 20
-1.300000000000002
 10
5.999999999999992
 20
-1.300000000000002
 10
5.999999999999992
 20
1.299999999999998
 10
9.499999999999992
 20
1.299999999999998
 10
9.999999999999992
 20
1.799999999999998
 10
9.999999999999992
 20
5.999999999999991
 10
5.999999999999992
 20
5.999999999999991
 10
5.999999999999992
 20
9.999999999999991
 10
1.800000000000004
 20
9.999999999999991
 10
1.300000000000004
 20
9.499999999999991
 10
1.300000000000004
 20
5.999999999999991
 10
-1.29999999999999
 20
5.999999999999991
  0
LWPOLYLINE
  5
10100
330
100F8
100
AcDbEntity
  8
0
100
AcDbPolyline
 90
       12
 70
     0
 43
0.0
 10
-9.999999999999992
 20
-1.800000000000002
 10
-9.499999999999992
 20
-1.300000000000002
 10
-5.999999999999992
 20
-1.300000000000002
 10
-5.999999999999992
 20
1.299999999999998
 10
-9.499999999999992
 20
1.299999999999998
 10
-9.999999999999992
 20
1.799999999999998
 10
-9.999999999999992
 20
5.999999999999991
 10
-5.999999999999992
 20
5.999999999999991
 10
-5.999999999999992
 20
9.999999999999991
 10
-1.79999999999999
 20
9.999999999999991
 10
-1.29999999999999
 20
9.499999999999991
 10
-1.29999999999999
 20
5.999999999999991
  0
LWPOLYLINE
  5
10101
330
100F8
100
AcDbEntity
  8
0
100
AcDbPolyline
 90
       13
 70
     0
 43
0.0
 10
-9.999999999999992
 20
-1.800000000000002
 10
-9.999999999999992
 20
-5.999999999999998
 10
-5.999999999999992
 20
-5.999999999999998
 10
-5.999999999999992
 20
-9.999999999999991
 10
-1.800000000000004
 20
-9.999999999999991
 10
-1.300000000000004
 20
-9.499999999999991
 10
-1.29999999999999
 20
-5.999999999999991
 10
1.300000000000004
 20
-5.999999999999991
 10
1.300000000000004
 20
-9.499999999999991
 10
1.800000000000004
 20
-9.999999999999991
 10
5.999999999999992
 20
-9.999999999999991
 10
5.999999999999992
 20
-5.999999999999984
 10
9.999999999999992
 20
-5.999999999999984
  0
ENDBLK
  5
100FA
330
100F8
100
AcDbEntity
  8
0
100
AcDbBlockEnd
  0
BLOCK
  5
100FC
330
100FB
100
AcDbEntity
  8
0
100
AcDbBlockBegin
  2
*U8
 70
     1
 10
0.0
 20
0.0
 30
0.0
  3
*U8
  1

  0
INSERT
  5
1010C
330
100FB
100
AcDbEntity
  8
0
  6
ByBlock
347
1000D
 62
     0
440
 16777216
370
    -2
380
     1
100
AcDbBlockReference
  2
*U7
 10
0.0
 20
0.0
 30
0.0
  0
INSERT
  5
1010D
330
100FB
100
AcDbEntity
  8
0
  6
ByBlock
347
1000D
 62
     0
440
 16777216
370
    -2
380
     1
100
AcDbBlockReference
  2
*U7
 10
42.82742371009876
 20
0.0
 30
0.0
  0
INSERT
  5
1010E
330
100FB
100
AcDbEntity
  8
0
  6
ByBlock
347
1000D
 62
     0
440
 16777216
370
    -2
380
     1
100
AcDbBlockReference
  2
*U7
 10
85.65484742019753
 20
0.0
 30
0.0
  0
INSERT
  5
1010F
330
100FB
100
AcDbEntity
  8
0
  6
ByBlock
347
1000D
 62
     0
440
 16777216
370
    -2
380
     1
100
AcDbBlockReference
  2
*U7
 10
128.4822711302963
 20
0.0
 30
0.0
  0
INSERT
  5
10110
330
100FB
100
AcDbEntity
  8
0
  6
ByBlock
347
1000D
 62
     0
440
 16777216
370
    -2
380
     1
100
AcDbBlockReference
  2
*U7
 10
171.309694840395
 20
0.0
 30
0.0
  0
INSERT
  5
10111
330
100FB
100
AcDbEntity
  8
0
  6
ByBlock
347
1000D
 62
     0
440
 16777216
370
    -2
380
     1
100
AcDbBlockReference
  2
*U7
 10
214.1371185504938
 20
0.0
 30
0.0
  0
ENDBLK
  5
100FD
330
100FB
100
AcDbEntity
  8
0
100
AcDbBlockEnd
  0
BLOCK
  5
10114
330
10113
100
AcDbEntity
  8
0
100
AcDbBlockBegin
  2
*U9
 70
     1
 10
0.0
 20
0.0
 30
0.0
  3
*U9
  1

  0
LWPOLYLINE
  5
10115
330
10113
100
AcDbEntity
  8
0
100
AcDbPolyline
 90
       14
 70
     0
 43
0.0
 10
9.999999999999992
 20
-5.999999999999984
 10
9.999999999999992
 20
-1.800000000000002
 10
9.499999999999992
 20
-1.300000000000002
 10
5.999999999999992
 20
-1.300000000000002
 10
5.999999999999992
 20
1.299999999999998
 10
9.499999999999992
 20
1.299999999999998
 10
9.999999999999992
 20
1.799999999999998
 10
9.999999999999992
 20
5.999999999999991
 10
5.999999999999992
 20
5.999999999999991
 10
5.999999999999992
 20
9.999999999999991
 10
1.800000000000004
 20
9.999999999999991
 10
1.300000000000004
 20
9.499999999999991
 10
1.300000000000004
 20
5.999999999999991
 10
-1.29999999999999
 20
5.999999999999991
  0
LWPOLYLINE
  5
10116
330
10113
100
AcDbEntity
  8
0
100
AcDbPolyline
 90
       12
 70
     0
 43
0.0
 10
-9.999999999999992
 20
-1.800000000000002
 10
-9.499999999999992
 20
-1.300000000000002
 10
-5.999999999999992
 20
-1.300000000000002
 10
-5.999999999999992
 20
1.299999999999998
 10
-9.499999999999992
 20
1.299999999999998
 10
-9.999999999999992
 20
1.799999999999998
 10
-9.999999999999992
 20
5.999999999999991
 10
-5.999999999999992
 20
5.999999999999991
 10
-5.999999999999992
 20
9.999999999999991
 10
-1.79999999999999
 20
9.999999999999991
 10
-1.29999999999999
 20
9.499999999999991
 10
-1.29999999999999
 20
5.999999999999991
  0
LWPOLYLINE
  5
10117
330
10113
100
AcDbEntity
  8
0
100
AcDbPolyline
 90
       13
 70
     0
 43
0.0
 10
-9.999999999999992
 20
-1.800000000000002
 10
-9.999999999999992
 20
-5.999999999999998
 10
-5.999999999999992
 20
-5.999999999999998
 10
-5.999999999999992
 20
-9.999999999999991
 10
-1.800000000000004
 20
-9.999999999999991
 10
-1.300000000000004
 20
-9.499999999999991
 10
-1.29999999999999
 20
-5.999999999999991
 10
1.300000000000004
 20
-5.999999999999991
 10
1.300000000000004
 20
-9.499999999999991
 10
1.800000000000004
 20
-9.999999999999991
 10
5.999999999999992
 20
-9.999999999999991
 10
5.999999999999992
 20
-5.999999999999984
 10
9.999999999999992
 20
-5.999999999999984
  0
ENDBLK
  5
10118
330
10113
100
AcDbEntity
  8
0
100
AcDbBlockEnd
  0
BLOCK
  5
1011C
330
1011B
100
AcDbEntity
  8
0
100
AcDbBlockBegin
  2
*U11
 70
     1
 10
0.0
 20
0.0
 30
0.0
  3
*U11
  1

  0
INSERT
  5
1011D
330
1011B
100
AcDbEntity
  8
0
  6
ByBlock
347
1000D
 62
     0
440
 16777216
370
    -2
380
     1
100
AcDbBlockReference
  2
*U9
 10
0.0
 20
0.0
 30
0.0
  0
INSERT
  5
1011E
330
1011B
100
AcDbEntity
  8
0
  6
ByBlock
347
1000D
 62
     0
440
 16777216
370
    -2
380
     1
100
AcDbBlockReference
  2
*U9
 10
42.82742371009876
 20
0.0
 30
0.0
  0
INSERT
  5
1011F
330
1011B
100
AcDbEntity
  8
0
  6
ByBlock
347
1000D
 62
     0
440
 16777216
370
    -2
380
     1
100
AcDbBlockReference
  2
*U9
 10
85.65484742019753
 20
0.0
 30
0.0
  0
INSERT
  5
10120
330
1011B
100
AcDbEntity
  8
0
  6
ByBlock
347
1000D
 62
     0
440
 16777216
370
    -2
380
     1
100
AcDbBlockReference
  2
*U9
 10
128.4822711302963
 20
0.0
 30
0.0
  0
INSERT
  5
10121
330
1011B
100
AcDbEntity
  8
0
  6
ByBlock
347
1000D
 62
     0
440
 16777216
370
    -2
380
     1
100
AcDbBlockReference
  2
*U9
 10
171.309694840395
 20
0.0
 30
0.0
  0
INSERT
  5
10122
330
1011B
100
AcDbEntity
  8
0
  6
ByBlock
347
1000D
 62
     0
440
 16777216
370
    -2
380
     1
100
AcDbBlockReference
  2
*U9
 10
214.1371185504938
 20
0.0
 30
0.0
  0
ENDBLK
  5
10123
330
1011B
100
AcDbEntity
  8
0
100
AcDbBlockEnd
  0
BLOCK
  5
10153
330
10152
100
AcDbEntity
  8
0
100
AcDbBlockBegin
  2
*U12
 70
     1
 10
0.0
 20
0.0
 30
0.0
  3
*U12
  1

  0
LWPOLYLINE
  5
10154
330
10152
100
AcDbEntity
  8
0
100
AcDbPolyline
 90
       16
 70
     1
 43
0.0
 10
25.00000000000001
 20
25.0
 42
0.4142135623730951
 10
-25.0
 20
-25.0
 10
-18.46666666666665
 20
-25.0
 10
-17.96666666666666
 20
-24.5
 10
-17.96666666666666
 20
-21.0
 10
-15.36666666666666
 20
-21.0
 10
-15.36666666666666
 20
-24.5
 10
-14.86666666666666
 20
-25.0
 10
-8.333333333333332
 20
-25.0
 42
-0.4142135623730951
 10
25.0
 20
8.333333333333339
 10
25.0
 20
14.86666666666667
 10
24.50000000000001
 20
15.36666666666667
 10
21.00000000000001
 20
15.36666666666667
 10
21.0
 20
17.96666666666666
 10
24.50000000000001
 20
17.96666666666666
 10
25.0
 20
18.46666666666666
  0
ENDBLK
  5
10155
330
10152
100
AcDbEntity
  8
0
100
AcDbBlockEnd
  0
BLOCK
  5
10159
330
10158
100
AcDbEntity
  8
0
100
AcDbBlockBegin
  2
*U14
 70
     1
 10
0.0
 20
0.0
 30
0.0
  3
*U14
  1

  0
INSERT
  5
1015A
330
10158
100
AcDbEntity
  8
0
  6
ByBlock
347
1000D
 62
     0
440
 16777216
370
    -2
380
     1
100
AcDbBlockReference
  2
*U12
 10
0.0
 20
0.0
 30
0.0
  0
INSERT
  5
1015B
330
10158
100
AcDbEntity
  8
0
  6
ByBlock
347
1000D
 62
     0
440
 16777216
370
    -2
380
     1
100
AcDbBlockReference
  2
*U12
 10
42.71918650631437
 20
0.0
 30
0.0
  0
INSERT
  5
1015C
330
10158
100
AcDbEntity
  8
0
  6
ByBlock
347
1000D
 62
     0
440
 16777216
370
    -2
380
     1
100
AcDbBlockReference
  2
*U12
 10
85.43837301262874
 20
0.0
 30
0.0
  0
INSERT
  5
1015D
330
10158
100
AcDbEntity
  8
0
  6
ByBlock
347
1000D
 62
     0
440
 16777216
370
    -2
380
     1
100
AcDbBlockReference
  2
*U12
 10
128.1575595189431
 20
0.0
 30
0.0
  0
INSERT
  5
1015E
330
10158
100
AcDbEntity
  8
0
  6
ByBlock
347
1000D
 62
     0
440
 16777216
370
    -2
380
     1
100
AcDbBlockReference
  2
*U12
 10
170.8767460252575
 20
0.0
 30
0.0
  0
INSERT
  5
1015F
330
10158
100
AcDbEntity
  8
0
  6
ByBlock
347
1000D
 62
     0
440
 16777216
370
    -2
380
     1
100
AcDbBlockReference
  2
*U12
 10
213.5959325315718
 20
0.0
 30
0.0
  0
ENDBLK
  5
10160
330
10158
100
AcDbEntity
  8
0
100
AcDbBlockEnd
  0
BLOCK
  5
1016A
330
10169
100
AcDbEntity
  8
0
100
AcDbBlockBegin
  2
*U15
 70
     1
 10
0.0
 20
0.0
 30
0.0
  3
*U15
  1

  0
LWPOLYLINE
  5
1016B
330
10169
100
AcDbEntity
  8
0
100
AcDbPolyline
 90
       16
 70
     1
 43
0.0
 10
25.00000000000001
 20
25.0
 42
0.4142135623730951
 10
-25.0
 20
-25.0
 10
-18.46666666666665
 20
-25.0
 10
-17.96666666666666
 20
-24.5
 10
-17.96666666666666
 20
-21.0
 10
-15.36666666666666
 20
-21.0
 10
-15.36666666666666
 20
-24.5
 10
-14.86666666666666
 20
-25.0
 10
-8.333333333333332
 20
-25.0
 42
-0.4142135623730951
 10
25.0
 20
8.333333333333339
 10
25.0
 20
14.86666666666667
 10
24.50000000000001
 20
15.36666666666667
 10
21.00000000000001
 20
15.36666666666667
 10
21.0
 20
17.96666666666666
 10
24.50000000000001
 20
17.96666666666666
 10
25.0
 20
18.46666666666666
  0
ENDBLK
  5
1016C
330
10169
100
AcDbEntity
  8
0
100
AcDbBlockEnd
  0
BLOCK
  5
1016E
330
1016D
100
AcDbEntity
  8
0
100
AcDbBlockBegin
  2
*U16
 70
     1
 10
0.0
 20
0.0
 30
0.0
  3
*U16
  1

  0
INSERT
  5
1016F
330
1016D
100
AcDbEntity
  8
0
  6
ByBlock
347
1000D
 62
     0
440
 16777216
370
    -2
380
     1
100
AcDbBlockReference
  2
*U15
 10
0.0
 20
0.0
 30
0.0
  0
INSERT
  5
10170
330
1016D
100
AcDbEntity
  8
0
  6
ByBlock
347
1000D
 62
     0
440
 16777216
370
    -2
380
     1
100
AcDbBlockReference
  2
*U15
 10
42.71918650631437
 20
0.0
 30
0.0
  0
INSERT
  5
10171
330
1016D
100
AcDbEntity
  8
0
  6
ByBlock
347
1000D
 62
     0
440
 16777216
370
    -2
380
     1
100
AcDbBlockReference
  2
*U15
 10
85.43837301262874
 20
0.0
 30
0.0
  0
INSERT
  5
10172
330
1016D
100
AcDbEntity
  8
0
  6
ByBlock
347
1000D
 62
     0
440
 16777216
370
    -2
380
     1
100
AcDbBlockReference
  2
*U15
 10
128.1575595189431
 20
0.0
 30
0.0
  0
INSERT
  5
10173
330
1016D
100
AcDbEntity
  8
0
  6
ByBlock
347
1000D
 62
     0
440
 16777216
370
    -2
380
     1
100
AcDbBlockReference
  2
*U15
 10
170.8767460252575
 20
0.0
 30
0.0
  0
INSERT
  5
10174
330
1016D
100
AcDbEntity
  8
0
  6
ByBlock
347
1000D
 62
     0
440
 16777216
370
    -2
380
     1
100
AcDbBlockReference
  2
*U15
 10
213.5959325315718
 20
0.0
 30
0.0
  0
ENDBLK
  5
10175
330
1016D
100
AcDbEntity
  8
0
100
AcDbBlockEnd
  0
BLOCK
  5
1017F
330
1017E
100
AcDbEntity
  8
0
100
AcDbBlockBegin
  2
*U17
 70
     1
 10
0.0
 20
0.0
 30
0.0
  3
*U17
  1

  0
LWPOLYLINE
  5
10180
330
1017E
100
AcDbEntity
  8
0
100
AcDbPolyline
 90
       14
 70
     0
 43
0.0
 10
9.999999999999992
 20
-5.999999999999984
 10
9.999999999999992
 20
-1.800000000000002
 10
9.499999999999992
 20
-1.300000000000002
 10
5.999999999999992
 20
-1.300000000000002
 10
5.999999999999992
 20
1.299999999999998
 10
9.499999999999992
 20
1.299999999999998
 10
9.999999999999992
 20
1.799999999999998
 10
9.999999999999992
 20
5.999999999999991
 10
5.999999999999992
 20
5.999999999999991
 10
5.999999999999992
 20
9.999999999999991
 10
1.800000000000004
 20
9.999999999999991
 10
1.300000000000004
 20
9.499999999999991
 10
1.300000000000004
 20
5.999999999999991
 10
-1.29999999999999
 20
5.999999999999991
  0
LWPOLYLINE
  5
10181
330
1017E
100
AcDbEntity
  8
0
100
AcDbPolyline
 90
       12
 70
     0
 43
0.0
 10
-9.999999999999992
 20
-1.800000000000002
 10
-9.499999999999992
 20
-1.300000000000002
 10
-5.999999999999992
 20
-1.300000000000002
 10
-5.999999999999992
 20
1.299999999999998
 10
-9.499999999999992
 20
1.299999999999998
 10
-9.999999999999992
 20
1.799999999999998
 10
-9.999999999999992
 20
5.999999999999991
 10
-5.999999999999992
 20
5.999999999999991
 10
-5.999999999999992
 20
9.999999999999991
 10
-1.79999999999999
 20
9.999999999999991
 10
-1.29999999999999
 20
9.499999999999991
 10
-1.29999999999999
 20
5.999999999999991
  0
LWPOLYLINE
  5
10182
330
1017E
100
AcDbEntity
  8
0
100
AcDbPolyline
 90
       13
 70
     0
 43
0.0
 10
-9.999999999999992
 20
-1.800000000000002
 10
-9.999999999999992
 20
-5.999999999999998
 10
-5.999999999999992
 20
-5.999999999999998
 10
-5.999999999999992
 20
-9.999999999999991
 10
-1.800000000000004
 20
-9.999999999999991
 10
-1.300000000000004
 20
-9.499999999999991
 10
-1.29999999999999
 20
-5.999999999999991
 10
1.300000000000004
 20
-5.999999999999991
 10
1.300000000000004
 20
-9.499999999999991
 10
1.800000000000004
 20
-9.999999999999991
 10
5.999999999999992
 20
-9.999999999999991
 10
5.999999999999992
 20
-5.999999999999984
 10
9.999999999999992
 20
-5.999999999999984
  0
ENDBLK
  5
10183
330
1017E
100
AcDbEntity
  8
0
100
AcDbBlockEnd
  0
BLOCK
  5
10185
330
10184
100
AcDbEntity
  8
0
100
AcDbBlockBegin
  2
*U18
 70
     1
 10
0.0
 20
0.0
 30
0.0
  3
*U18
  1

  0
INSERT
  5
10186
330
10184
100
AcDbEntity
  8
0
  6
ByBlock
347
1000D
 62
     0
440
 16777216
370
    -2
380
     1
100
AcDbBlockReference
  2
*U17
 10
0.0
 20
0.0
 30
0.0
  0
INSERT
  5
10187
330
10184
100
AcDbEntity
  8
0
  6
ByBlock
347
1000D
 62
     0
440
 16777216
370
    -2
380
     1
100
AcDbBlockReference
  2
*U17
 10
42.82742371009876
 20
0.0
 30
0.0
  0
INSERT
  5
10188
330
10184
100
AcDbEntity
  8
0
  6
ByBlock
347
1000D
 62
     0
440
 16777216
370
    -2
380
     1
100
AcDbBlockReference
  2
*U17
 10
85.65484742019753
 20
0.0
 30
0.0
  0
INSERT
  5
10189
330
10184
100
AcDbEntity
  8
0
  6
ByBlock
347
1000D
 62
     0
440
 16777216
370
    -2
380
     1
100
AcDbBlockReference
  2
*U17
 10
128.4822711302963
 20
0.0
 30
0.0
  0
INSERT
  5
1018A
330
10184
100
AcDbEntity
  8
0
  6
ByBlock
347
1000D
 62
     0
440
 16777216
370
    -2
380
     1
100
AcDbBlockReference
  2
*U17
 10
171.309694840395
 20
0.0
 30
0.0
  0
INSERT
  5
1018B
330
10184
100
AcDbEntity
  8
0
  6
ByBlock
347
1000D
 62
     0
440
 16777216
370
    -2
380
     1
100
AcDbBlockReference
  2
*U17
 10
214.1371185504938
 20
0.0
 30
0.0
  0
ENDBLK
  5
1018C
330
10184
100
AcDbEntity
  8
0
100
AcDbBlockEnd
  0
BLOCK
  5
10196
330
10195
100
AcDbEntity
  8
0
100
AcDbBlockBegin
  2
*U19
 70
     1
 10
0.0
 20
0.0
 30
0.0
  3
*U19
  1

  0
LWPOLYLINE
  5
10197
330
10195
100
AcDbEntity
  8
0
100
AcDbPolyline
 90
       14
 70
     0
 43
0.0
 10
9.999999999999992
 20
-5.999999999999984
 10
9.999999999999992
 20
-1.800000000000002
 10
9.499999999999992
 20
-1.300000000000002
 10
5.999999999999992
 20
-1.300000000000002
 10
5.999999999999992
 20
1.299999999999998
 10
9.499999999999992
 20
1.299999999999998
 10
9.999999999999992
 20
1.799999999999998
 10
9.999999999999992
 20
5.999999999999991
 10
5.999999999999992
 20
5.999999999999991
 10
5.999999999999992
 20
9.999999999999991
 10
1.800000000000004
 20
9.999999999999991
 10
1.300000000000004
 20
9.499999999999991
 10
1.300000000000004
 20
5.999999999999991
 10
-1.29999999999999
 20
5.999999999999991
  0
LWPOLYLINE
  5
10198
330
10195
100
AcDbEntity
  8
0
100
AcDbPolyline
 90
       12
 70
     0
 43
0.0
 10
-9.999999999999992
 20
-1.800000000000002
 10
-9.499999999999992
 20
-1.300000000000002
 10
-5.999999999999992
 20
-1.300000000000002
 10
-5.999999999999992
 20
1.299999999999998
 10
-9.499999999999992
 20
1.299999999999998
 10
-9.999999999999992
 20
1.799999999999998
 10
-9.999999999999992
 20
5.999999999999991
 10
-5.999999999999992
 20
5.999999999999991
 10
-5.999999999999992
 20
9.999999999999991
 10
-1.79999999999999
 20
9.999999999999991
 10
-1.29999999999999
 20
9.499999999999991
 10
-1.29999999999999
 20
5.999999999999991
  0
LWPOLYLINE
  5
10199
330
10195
100
AcDbEntity
  8
0
100
AcDbPolyline
 90
       13
 70
     0
 43
0.0
 10
-9.999999999999992
 20
-1.800000000000002
 10
-9.999999999999992
 20
-5.999999999999998
 10
-5.999999999999992
 20
-5.999999999999998
 10
-5.999999999999992
 20
-9.999999999999991
 10
-1.800000000000004
 20
-9.999999999999991
 10
-1.300000000000004
 20
-9.499999999999991
 10
-1.29999999999999
 20
-5.999999999999991
 10
1.300000000000004
 20
-5.999999999999991
 10
1.300000000000004
 20
-9.499999999999991
 10
1.800000000000004
 20
-9.999999999999991
 10
5.999999999999992
 20
-9.999999999999991
 10
5.999999999999992
 20
-5.999999999999984
 10
9.999999999999992
 20
-5.999999999999984
  0
ENDBLK
  5
1019A
330
10195
100
AcDbEntity
  8
0
100
AcDbBlockEnd
  0
BLOCK
  5
1019C
330
1019B
100
AcDbEntity
  8
0
100
AcDbBlockBegin
  2
*U20
 70
     1
 10
0.0
 20
0.0
 30
0.0
  3
*U20
  1

  0
INSERT
  5
1019D
330
1019B
100
AcDbEntity
  8
0
  6
ByBlock
347
1000D
 62
     0
440
 16777216
370
    -2
380
     1
100
AcDbBlockReference
  2
*U19
 10
0.0
 20
0.0
 30
0.0
  0
INSERT
  5
1019E
330
1019B
100
AcDbEntity
  8
0
  6
ByBlock
347
1000D
 62
     0
440
 16777216
370
    -2
380
     1
100
AcDbBlockReference
  2
*U19
 10
42.82742371009876
 20
0.0
 30
0.0
  0
INSERT
  5
1019F
330
1019B
100
AcDbEntity
  8
0
  6
ByBlock
347
1000D
 62
     0
440
 16777216
370
    -2
380
     1
100
AcDbBlockReference
  2
*U19
 10
85.65484742019753
 20
0.0
 30
0.0
  0
INSERT
  5
101A0
330
1019B
100
AcDbEntity
  8
0
  6
ByBlock
347
1000D
 62
     0
440
 16777216
370
    -2
380
     1
100
AcDbBlockReference
  2
*U19
 10
128.4822711302963
 20
0.0
 30
0.0
  0
INSERT
  5
101A1
330
1019B
100
AcDbEntity
  8
0
  6
ByBlock
347
1000D
 62
     0
440
 16777216
370
    -2
380
     1
100
AcDbBlockReference
  2
*U19
 10
171.309694840395
 20
0.0
 30
0.0
  0
INSERT
  5
101A2
330
1019B
100
AcDbEntity
  8
0
  6
ByBlock
347
1000D
 62
     0
440
 16777216
370
    -2
380
     1
100
AcDbBlockReference
  2
*U19
 10
214.1371185504938
 20
0.0
 30
0.0
  0
ENDBLK
  5
101A3
330
1019B
100
AcDbEntity
  8
0
100
AcDbBlockEnd
  0
BLOCK
  5
101B3
330
101B2
100
AcDbEntity
  8
0
100
AcDbBlockBegin
  2
*U21
 70
     1
 10
0.0
 20
0.0
 30
0.0
  3
*U21
  1

  0
LWPOLYLINE
  5
101B4
330
101B2
100
AcDbEntity
  8
0
100
AcDbPolyline
 90
       16
 70
     1
 43
0.0
 10
25.00000000000001
 20
25.0
 42
0.4142135623730951
 10
-25.0
 20
-25.0
 10
-18.46666666666665
 20
-25.0
 10
-17.96666666666666
 20
-24.5
 10
-17.96666666666666
 20
-21.0
 10
-15.36666666666666
 20
-21.0
 10
-15.36666666666666
 20
-24.5
 10
-14.86666666666666
 20
-25.0
 10
-8.333333333333332
 20
-25.0
 42
-0.4142135623730951
 10
25.0
 20
8.333333333333339
 10
25.0
 20
14.86666666666667
 10
24.50000000000001
 20
15.36666666666667
 10
21.00000000000001
 20
15.36666666666667
 10
21.0
 20
17.96666666666666
 10
24.50000000000001
 20
17.96666666666666
 10
25.0
 20
18.46666666666666
  0
ENDBLK
  5
101B5
330
101B2
100
AcDbEntity
  8
0
100
AcDbBlockEnd
  0
BLOCK
  5
101B9
330
101B8
100
AcDbEntity
  8
0
100
AcDbBlockBegin
  2
*U23
 70
     1
 10
0.0
 20
0.0
 30
0.0
  3
*U23
  1

  0
INSERT
  5
101BA
330
101B8
100
AcDbEntity
  8
0
  6
ByBlock
347
1000D
 62
     0
440
 16777216
370
    -2
380
     1
100
AcDbBlockReference
  2
*U21
 10
0.0
 20
0.0
 30
0.0
  0
INSERT
  5
101BB
330
101B8
100
AcDbEntity
  8
0
  6
ByBlock
347
1000D
 62
     0
440
 16777216
370
    -2
380
     1
100
AcDbBlockReference
  2
*U21
 10
42.71918650631437
 20
0.0
 30
0.0
  0
INSERT
  5
101BC
330
101B8
100
AcDbEntity
  8
0
  6
ByBlock
347
1000D
 62
     0
440
 16777216
370
    -2
380
     1
100
AcDbBlockReference
  2
*U21
 10
85.43837301262874
 20
0.0
 30
0.0
  0
INSERT
  5
101BD
330
101B8
100
AcDbEntity
  8
0
  6
ByBlock
347
1000D
 62
     0
440
 16777216
370
    -2
380
     1
100
AcDbBlockReference
  2
*U21
 10
128.1575595189431
 20
0.0
 30
0.0
  0
INSERT
  5
101BE
330
101B8
100
AcDbEntity
  8
0
  6
ByBlock
347
1000D
 62
     0
440
 16777216
370
    -2
380
     1
100
AcDbBlockReference
  2
*U21
 10
170.8767460252575
 20
0.0
 30
0.0
  0
INSERT
  5
101BF
330
101B8
100
AcDbEntity
  8
0
  6
ByBlock
347
1000D
 62
     0
440
 16777216
370
    -2
380
     1
100
AcDbBlockReference
  2
*U21
 10
213.5959325315718
 20
0.0
 30
0.0
  0
ENDBLK
  5
101C0
330
101B8
100
AcDbEntity
  8
0
100
AcDbBlockEnd
  0
BLOCK
  5
101CA
330
101C9
100
AcDbEntity
  8
0
100
AcDbBlockBegin
  2
*U24
 70
     1
 10
0.0
 20
0.0
 30
0.0
  3
*U24
  1

  0
LWPOLYLINE
  5
101CB
330
101C9
100
AcDbEntity
  8
0
100
AcDbPolyline
 90
       16
 70
     1
 43
0.0
 10
25.00000000000001
 20
25.0
 42
0.4142135623730951
 10
-25.0
 20
-25.0
 10
-18.46666666666665
 20
-25.0
 10
-17.96666666666666
 20
-24.5
 10
-17.96666666666666
 20
-21.0
 10
-15.36666666666666
 20
-21.0
 10
-15.36666666666666
 20
-24.5
 10
-14.86666666666666
 20
-25.0
 10
-8.333333333333332
 20
-25.0
 42
-0.4142135623730951
 10
25.0
 20
8.333333333333339
 10
25.0
 20
14.86666666666667
 10
24.50000000000001
 20
15.36666666666667
 10
21.00000000000001
 20
15.36666666666667
 10
21.0
 20
17.96666666666666
 10
24.50000000000001
 20
17.96666666666666
 10
25.0
 20
18.46666666666666
  0
ENDBLK
  5
101CC
330
101C9
100
AcDbEntity
  8
0
100
AcDbBlockEnd
  0
BLOCK
  5
101CE
330
101CD
100
AcDbEntity
  8
0
100
AcDbBlockBegin
  2
*U25
 70
     1
 10
0.0
 20
0.0
 30
0.0
  3
*U25
  1

  0
INSERT
  5
101CF
330
101CD
100
AcDbEntity
  8
0
  6
ByBlock
347
1000D
 62
     0
440
 16777216
370
    -2
380
     1
100
AcDbBlockReference
  2
*U24
 10
0.0
 20
0.0
 30
0.0
  0
INSERT
  5
101D0
330
101CD
100
AcDbEntity
  8
0
  6
ByBlock
347
1000D
 62
     0
440
 16777216
370
    -2
380
     1
100
AcDbBlockReference
  2
*U24
 10
42.71918650631437
 20
0.0
 30
0.0
  0
INSERT
  5
101D1
330
101CD
100
AcDbEntity
  8
0
  6
ByBlock
347
1000D
 62
     0
440
 16777216
370
    -2
380
     1
100
AcDbBlockReference
  2
*U24
 10
85.43837301262874
 20
0.0
 30
0.0
  0
INSERT
  5
101D2
330
101CD
100
AcDbEntity
  8
0
  6
ByBlock
347
1000D
 62
     0
440
 16777216
370
    -2
380
     1
100
AcDbBlockReference
  2
*U24
 10
128.1575595189431
 20
0.0
 30
0.0
  0
INSERT
  5
101D3
330
101CD
100
AcDbEntity
  8
0
  6
ByBlock
347
1000D
 62
     0
440
 16777216
370
    -2
380
     1
100
AcDbBlockReference
  2
*U24
 10
170.8767460252575
 20
0.0
 30
0.0
  0
INSERT
  5
101D4
330
101CD
100
AcDbEntity
  8
0
  6
ByBlock
347
1000D
 62
     0
440
 16777216
370
    -2
380
     1
100
AcDbBlockReference
  2
*U24
 10
213.5959325315718
 20
0.0
 30
0.0
  0
ENDBLK
  5
101D5
330
101CD
100
AcDbEntity
  8
0
100
AcDbBlockEnd
  0
BLOCK
  5
101DF
330
101DE
100
AcDbEntity
  8
0
100
AcDbBlockBegin
  2
*U26
 70
     1
 10
0.0
 20
0.0
 30
0.0
  3
*U26
  1

  0
LWPOLYLINE
  5
101E0
330
101DE
100
AcDbEntity
  8
0
100
AcDbPolyline
 90
       14
 70
     0
 43
0.0
 10
9.999999999999992
 20
-5.999999999999984
 10
9.999999999999992
 20
-1.800000000000002
 10
9.499999999999992
 20
-1.300000000000002
 10
5.999999999999992
 20
-1.300000000000002
 10
5.999999999999992
 20
1.299999999999998
 10
9.499999999999992
 20
1.299999999999998
 10
9.999999999999992
 20
1.799999999999998
 10
9.999999999999992
 20
5.999999999999991
 10
5.999999999999992
 20
5.999999999999991
 10
5.999999999999992
 20
9.999999999999991
 10
1.800000000000004
 20
9.999999999999991
 10
1.300000000000004
 20
9.499999999999991
 10
1.300000000000004
 20
5.999999999999991
 10
-1.29999999999999
 20
5.999999999999991
  0
LWPOLYLINE
  5
101E1
330
101DE
100
AcDbEntity
  8
0
100
AcDbPolyline
 90
       12
 70
     0
 43
0.0
 10
-9.999999999999992
 20
-1.800000000000002
 10
-9.499999999999992
 20
-1.300000000000002
 10
-5.999999999999992
 20
-1.300000000000002
 10
-5.999999999999992
 20
1.299999999999998
 10
-9.499999999999992
 20
1.299999999999998
 10
-9.999999999999992
 20
1.799999999999998
 10
-9.999999999999992
 20
5.999999999999991
 10
-5.999999999999992
 20
5.999999999999991
 10
-5.999999999999992
 20
9.999999999999991
 10
-1.79999999999999
 20
9.999999999999991
 10
-1.29999999999999
 20
9.499999999999991
 10
-1.29999999999999
 20
5.999999999999991
  0
LWPOLYLINE
  5
101E2
330
101DE
100
AcDbEntity
  8
0
100
AcDbPolyline
 90
       13
 70
     0
 43
0.0
 10
-9.999999999999992
 20
-1.800000000000002
 10
-9.999999999999992
 20
-5.999999999999998
 10
-5.999999999999992
 20
-5.999999999999998
 10
-5.999999999999992
 20
-9.999999999999991
 10
-1.800000000000004
 20
-9.999999999999991
 10
-1.300000000000004
 20
-9.499999999999991
 10
-1.29999999999999
 20
-5.999999999999991
 10
1.300000000000004
 20
-5.999999999999991
 10
1.300000000000004
 20
-9.499999999999991
 10
1.800000000000004
 20
-9.999999999999991
 10
5.999999999999992
 20
-9.999999999999991
 10
5.999999999999992
 20
-5.999999999999984
 10
9.999999999999992
 20
-5.999999999999984
  0
ENDBLK
  5
101E3
330
101DE
100
AcDbEntity
  8
0
100
AcDbBlockEnd
  0
BLOCK
  5
101E5
330
101E4
100
AcDbEntity
  8
0
100
AcDbBlockBegin
  2
*U27
 70
     1
 10
0.0
 20
0.0
 30
0.0
  3
*U27
  1

  0
INSERT
  5
101E6
330
101E4
100
AcDbEntity
  8
0
  6
ByBlock
347
1000D
 62
     0
440
 16777216
370
    -2
380
     1
100
AcDbBlockReference
  2
*U26
 10
0.0
 20
0.0
 30
0.0
  0
INSERT
  5
101E7
330
101E4
100
AcDbEntity
  8
0
  6
ByBlock
347
1000D
 62
     0
440
 16777216
370
    -2
380
     1
100
AcDbBlockReference
  2
*U26
 10
42.82742371009876
 20
0.0
 30
0.0
  0
INSERT
  5
101E8
330
101E4
100
AcDbEntity
  8
0
  6
ByBlock
347
1000D
 62
     0
440
 16777216
370
    -2
380
     1
100
AcDbBlockReference
  2
*U26
 10
85.65484742019753
 20
0.0
 30
0.0
  0
INSERT
  5
101E9
330
101E4
100
AcDbEntity
  8
0
  6
ByBlock
347
1000D
 62
     0
440
 16777216
370
    -2
380
     1
100
AcDbBlockReference
  2
*U26
 10
128.4822711302963
 20
0.0
 30
0.0
  0
INSERT
  5
101EA
330
101E4
100
AcDbEntity
  8
0
  6
ByBlock
347
1000D
 62
     0
440
 16777216
370
    -2
380
     1
100
AcDbBlockReference
  2
*U26
 10
171.309694840395
 20
0.0
 30
0.0
  0
INSERT
  5
101EB
330
101E4
100
AcDbEntity
  8
0
  6
ByBlock
347
1000D
 62
     0
440
 16777216
370
    -2
380
     1
100
AcDbBlockReference
  2
*U26
 10
214.1371185504938
 20
0.0
 30
0.0
  0
ENDBLK
  5
101EC
330
101E4
100
AcDbEntity
  8
0
100
AcDbBlockEnd
  0
BLOCK
  5
101F6
330
101F5
100
AcDbEntity
  8
0
100
AcDbBlockBegin
  2
*U28
 70
     1
 10
0.0
 20
0.0
 30
0.0
  3
*U28
  1

  0
LWPOLYLINE
  5
101F7
330
101F5
100
AcDbEntity
  8
0
100
AcDbPolyline
 90
       14
 70
     0
 43
0.0
 10
9.999999999999992
 20
-5.999999999999984
 10
9.999999999999992
 20
-1.800000000000002
 10
9.499999999999992
 20
-1.300000000000002
 10
5.999999999999992
 20
-1.300000000000002
 10
5.999999999999992
 20
1.299999999999998
 10
9.499999999999992
 20
1.299999999999998
 10
9.999999999999992
 20
1.799999999999998
 10
9.999999999999992
 20
5.999999999999991
 10
5.999999999999992
 20
5.999999999999991
 10
5.999999999999992
 20
9.999999999999991
 10
1.800000000000004
 20
9.999999999999991
 10
1.300000000000004
 20
9.499999999999991
 10
1.300000000000004
 20
5.999999999999991
 10
-1.29999999999999
 20
5.999999999999991
  0
LWPOLYLINE
  5
101F8
330
101F5
100
AcDbEntity
  8
0
100
AcDbPolyline
 90
       12
 70
     0
 43
0.0
 10
-9.999999999999992
 20
-1.800000000000002
 10
-9.499999999999992
 20
-1.300000000000002
 10
-5.999999999999992
 20
-1.300000000000002
 10
-5.999999999999992
 20
1.299999999999998
 10
-9.499999999999992
 20
1.299999999999998
 10
-9.999999999999992
 20
1.799999999999998
 10
-9.999999999999992
 20
5.999999999999991
 10
-5.999999999999992
 20
5.999999999999991
 10
-5.999999999999992
 20
9.999999999999991
 10
-1.79999999999999
 20
9.999999999999991
 10
-1.29999999999999
 20
9.499999999999991
 10
-1.29999999999999
 20
5.999999999999991
  0
LWPOLYLINE
  5
101F9
330
101F5
100
AcDbEntity
  8
0
100
AcDbPolyline
 90
       13
 70
     0
 43
0.0
 10
-9.999999999999992
 20
-1.800000000000002
 10
-9.999999999999992
 20
-5.999999999999998
 10
-5.999999999999992
 20
-5.999999999999998
 10
-5.999999999999992
 20
-9.999999999999991
 10
-1.800000000000004
 20
-9.999999999999991
 10
-1.300000000000004
 20
-9.499999999999991
 10
-1.29999999999999
 20
-5.999999999999991
 10
1.300000000000004
 20
-5.999999999999991
 10
1.300000000000004
 20
-9.499999999999991
 10
1.800000000000004
 20
-9.999999999999991
 10
5.999999999999992
 20
-9.999999999999991
 10
5.999999999999992
 20
-5.999999999999984
 10
9.999999999999992
 20
-5.999999999999984
  0
ENDBLK
  5
101FA
330
101F5
100
AcDbEntity
  8
0
100
AcDbBlockEnd
  0
BLOCK
  5
101FC
330
101FB
100
AcDbEntity
  8
0
100
AcDbBlockBegin
  2
*U29
 70
     1
 10
0.0
 20
0.0
 30
0.0
  3
*U29
  1

  0
INSERT
  5
101FD
330
101FB
100
AcDbEntity
  8
0
  6
ByBlock
347
1000D
 62
     0
440
 16777216
370
    -2
380
     1
100
AcDbBlockReference
  2
*U28
 10
0.0
 20
0.0
 30
0.0
  0
INSERT
  5
101FE
330
101FB
100
AcDbEntity
  8
0
  6
ByBlock
347
1000D
 62
     0
440
 16777216
370
    -2
380
     1
100
AcDbBlockReference
  2
*U28
 10
42.82742371009876
 20
0.0
 30
0.0
  0
INSERT
  5
101FF
330
101FB
100
AcDbEntity
  8
0
  6
ByBlock
347
1000D
 62
     0
440
 16777216
370
    -2
380
     1
100
AcDbBlockReference
  2
*U28
 10
85.65484742019753
 20
0.0
 30
0.0
  0
INSERT
  5
10200
330
101FB
100
AcDbEntity
  8
0
  6
ByBlock
347
1000D
 62
     0
440
 16777216
370
    -2
380
     1
100
AcDbBlockReference
  2
*U28
 10
128.4822711302963
 20
0.0
 30
0.0
  0
INSERT
  5
10201
330
101FB
100
AcDbEntity
  8
0
  6
ByBlock
347
1000D
 62
     0
440
 16777216
370
    -2
380
     1
100
AcDbBlockReference
  2
*U28
 10
171.309694840395
 20
0.0
 30
0.0
  0
INSERT
  5
10202
330
101FB
100
AcDbEntity
  8
0
  6
ByBlock
347
1000D
 62
     0
440
 16777216
370
    -2
380
     1
100
AcDbBlockReference
  2
*U28
 10
214.1371185504938
 20
0.0
 30
0.0
  0
ENDBLK
  5
10203
330
101FB
100
AcDbEntity
  8
0
100
AcDbBlockEnd
  0
BLOCK
  5
10219
330
10218
100
AcDbEntity
  8
0
100
AcDbBlockBegin
  2
*U30
 70
     1
 10
0.0
 20
0.0
 30
0.0
  3
*U30
  1

  0
LWPOLYLINE
  5
1021A
330
10218
100
AcDbEntity
  8
0
100
AcDbPolyline
 90
       16
 70
     1
 43
0.0
 10
25.00000000000001
 20
25.0
 42
0.4142135623730951
 10
-25.0
 20
-25.0
 10
-18.46666666666665
 20
-25.0
 10
-17.96666666666666
 20
-24.5
 10
-17.96666666666666
 20
-21.0
 10
-15.36666666666666
 20
-21.0
 10
-15.36666666666666
 20
-24.5
 10
-14.86666666666666
 20
-25.0
 10
-8.333333333333332
 20
-25.0
 42
-0.4142135623730951
 10
25.0
 20
8.333333333333339
 10
25.0
 20
14.86666666666667
 10
24.50000000000001
 20
15.36666666666667
 10
21.00000000000001
 20
15.36666666666667
 10
21.0
 20
17.96666666666666
 10
24.50000000000001
 20
17.96666666666666
 10
25.0
 20
18.46666666666666
  0
ENDBLK
  5
1021B
330
10218
100
AcDbEntity
  8
0
100
AcDbBlockEnd
  0
BLOCK
  5
1021F
330
1021E
100
AcDbEntity
  8
0
100
AcDbBlockBegin
  2
*U32
 70
     1
 10
0.0
 20
0.0
 30
0.0
  3
*U32
  1

  0
INSERT
  5
10220
330
1021E
100
AcDbEntity
  8
0
  6
ByBlock
347
1000D
 62
     0
440
 16777216
370
    -2
380
     1
100
AcDbBlockReference
  2
*U30
 10
0.0
 20
0.0
 30
0.0
  0
INSERT
  5
10221
330
1021E
100
AcDbEntity
  8
0
  6
ByBlock
347
1000D
 62
     0
440
 16777216
370
    -2
380
     1
100
AcDbBlockReference
  2
*U30
 10
42.71918650631437
 20
0.0
 30
0.0
  0
INSERT
  5
10222
330
1021E
100
AcDbEntity
  8
0
  6
ByBlock
347
1000D
 62
     0
440
 16777216
370
    -2
380
     1
100
AcDbBlockReference
  2
*U30
 10
85.43837301262874
 20
0.0
 30
0.0
  0
INSERT
  5
10223
330
1021E
100
AcDbEntity
  8
0
  6
ByBlock
347
1000D
 62
     0
440
 16777216
370
    -2
380
     1
100
AcDbBlockReference
  2
*U30
 10
128.1575595189431
 20
0.0
 30
0.0
  0
INSERT
  5
10224
330
1021E
100
AcDbEntity
  8
0
  6
ByBlock
347
1000D
 62
     0
440
 16777216
370
    -2
380
     1
100
AcDbBlockReference
  2
*U30
 10
170.8767460252575
 20
0.0
 30
0.0
  0
INSERT
  5
10225
330
1021E
100
AcDbEntity
  8
0
  6
ByBlock
347
1000D
 62
     0
440
 16777216
370
    -2
380
     1
100
AcDbBlockReference
  2
*U30
 10
213.5959325315718
 20
0.0
 30
0.0
  0
ENDBLK
  5
10226
330
1021E
100
AcDbEntity
  8
0
100
AcDbBlockEnd
  0
BLOCK
  5
10230
330
1022F
100
AcDbEntity
  8
0
100
AcDbBlockBegin
  2
*U33
 70
     1
 10
0.0
 20
0.0
 30
0.0
  3
*U33
  1

  0
LWPOLYLINE
  5
10231
330
1022F
100
AcDbEntity
  8
0
100
AcDbPolyline
 90
       16
 70
     1
 43
0.0
 10
25.00000000000001
 20
25.0
 42
0.4142135623730951
 10
-25.0
 20
-25.0
 10
-18.46666666666665
 20
-25.0
 10
-17.96666666666666
 20
-24.5
 10
-17.96666666666666
 20
-21.0
 10
-15.36666666666666
 20
-21.0
 10
-15.36666666666666
 20
-24.5
 10
-14.86666666666666
 20
-25.0
 10
-8.333333333333332
 20
-25.0
 42
-0.4142135623730951
 10
25.0
 20
8.333333333333339
 10
25.0
 20
14.86666666666667
 10
24.50000000000001
 20
15.36666666666667
 10
21.00000000000001
 20
15.36666666666667
 10
21.0
 20
17.96666666666666
 10
24.50000000000001
 20
17.96666666666666
 10
25.0
 20
18.46666666666666
  0
ENDBLK
  5
10232
330
1022F
100
AcDbEntity
  8
0
100
AcDbBlockEnd
  0
BLOCK
  5
10234
330
10233
100
AcDbEntity
  8
0
100
AcDbBlockBegin
  2
*U34
 70
     1
 10
0.0
 20
0.0
 30
0.0
  3
*U34
  1

  0
INSERT
  5
10235
330
10233
100
AcDbEntity
  8
0
  6
ByBlock
347
1000D
 62
     0
440
 16777216
370
    -2
380
     1
100
AcDbBlockReference
  2
*U33
 10
0.0
 20
0.0
 30
0.0
  0
INSERT
  5
10236
330
10233
100
AcDbEntity
  8
0
  6
ByBlock
347
1000D
 62
     0
440
 16777216
370
    -2
380
     1
100
AcDbBlockReference
  2
*U33
 10
42.71918650631437
 20
0.0
 30
0.0
  0
INSERT
  5
10237
330
10233
100
AcDbEntity
  8
0
  6
ByBlock
347
1000D
 62
     0
440
 16777216
370
    -2
380
     1
100
AcDbBlockReference
  2
*U33
 10
85.43837301262874
 20
0.0
 30
0.0
  0
INSERT
  5
10238
330
10233
100
AcDbEntity
  8
0
  6
ByBlock
347
1000D
 62
     0
440
 16777216
370
    -2
380
     1
100
AcDbBlockReference
  2
*U33
 10
128.1575595189431
 20
0.0
 30
0.0
  0
INSERT
  5
10239
330
10233
100
AcDbEntity
  8
0
  6
ByBlock
347
1000D
 62
     0
440
 16777216
370
    -2
380
     1
100
AcDbBlockReference
  2
*U33
 10
170.8767460252575
 20
0.0
 30
0.0
  0
INSERT
  5
1023A
330
10233
100
AcDbEntity
  8
0
  6
ByBlock
347
1000D
 62
     0
440
 16777216
370
    -2
380
     1
100
AcDbBlockReference
  2
*U33
 10
213.5959325315718
 20
0.0
 30
0.0
  0
ENDBLK
  5
1023B
330
10233
100
AcDbEntity
  8
0
100
AcDbBlockEnd
  0
BLOCK
  5
10245
330
10244
100
AcDbEntity
  8
0
100
AcDbBlockBegin
  2
*U35
 70
     1
 10
0.0
 20
0.0
 30
0.0
  3
*U35
  1

  0
LWPOLYLINE
  5
10246
330
10244
100
AcDbEntity
  8
0
100
AcDbPolyline
 90
       14
 70
     0
 43
0.0
 10
9.999999999999992
 20
-5.999999999999984
 10
9.999999999999992
 20
-1.800000000000002
 10
9.499999999999992
 20
-1.300000000000002
 10
5.999999999999992
 20
-1.300000000000002
 10
5.999999999999992
 20
1.299999999999998
 10
9.499999999999992
 20
1.299999999999998
 10
9.999999999999992
 20
1.799999999999998
 10
9.999999999999992
 20
5.999999999999991
 10
5.999999999999992
 20
5.999999999999991
 10
5.999999999999992
 20
9.999999999999991
 10
1.800000000000004
 20
9.999999999999991
 10
1.300000000000004
 20
9.499999999999991
 10
1.300000000000004
 20
5.999999999999991
 10
-1.29999999999999
 20
5.999999999999991
  0
LWPOLYLINE
  5
10247
330
10244
100
AcDbEntity
  8
0
100
AcDbPolyline
 90
       12
 70
     0
 43
0.0
 10
-9.999999999999992
 20
-1.800000000000002
 10
-9.499999999999992
 20
-1.300000000000002
 10
-5.999999999999992
 20
-1.300000000000002
 10
-5.999999999999992
 20
1.299999999999998
 10
-9.499999999999992
 20
1.299999999999998
 10
-9.999999999999992
 20
1.799999999999998
 10
-9.999999999999992
 20
5.999999999999991
 10
-5.999999999999992
 20
5.999999999999991
 10
-5.999999999999992
 20
9.999999999999991
 10
-1.79999999999999
 20
9.999999999999991
 10
-1.29999999999999
 20
9.499999999999991
 10
-1.29999999999999
 20
5.999999999999991
  0
LWPOLYLINE
  5
10248
330
10244
100
AcDbEntity
  8
0
100
AcDbPolyline
 90
       13
 70
     0
 43
0.0
 10
-9.999999999999992
 20
-1.800000000000002
 10
-9.999999999999992
 20
-5.999999999999998
 10
-5.999999999999992
 20
-5.999999999999998
 10
-5.999999999999992
 20
-9.999999999999991
 10
-1.800000000000004
 20
-9.999999999999991
 10
-1.300000000000004
 20
-9.499999999999991
 10
-1.29999999999999
 20
-5.999999999999991
 10
1.300000000000004
 20
-5.999999999999991
 10
1.300000000000004
 20
-9.499999999999991
 10
1.800000000000004
 20
-9.999999999999991
 10
5.999999999999992
 20
-9.999999999999991
 10
5.999999999999992
 20
-5.999999999999984
 10
9.999999999999992
 20
-5.999999999999984
  0
ENDBLK
  5
10249
330
10244
100
AcDbEntity
  8
0
100
AcDbBlockEnd
  0
BLOCK
  5
1024B
330
1024A
100
AcDbEntity
  8
0
100
AcDbBlockBegin
  2
*U36
 70
     1
 10
0.0
 20
0.0
 30
0.0
  3
*U36
  1

  0
INSERT
  5
1024C
330
1024A
100
AcDbEntity
  8
0
  6
ByBlock
347
1000D
 62
     0
440
 16777216
370
    -2
380
     1
100
AcDbBlockReference
  2
*U35
 10
0.0
 20
0.0
 30
0.0
  0
INSERT
  5
1024D
330
1024A
100
AcDbEntity
  8
0
  6
ByBlock
347
1000D
 62
     0
440
 16777216
370
    -2
380
     1
100
AcDbBlockReference
  2
*U35
 10
42.82742371009876
 20
0.0
 30
0.0
  0
INSERT
  5
1024E
330
1024A
100
AcDbEntity
  8
0
  6
ByBlock
347
1000D
 62
     0
440
 16777216
370
    -2
380
     1
100
AcDbBlockReference
  2
*U35
 10
85.65484742019753
 20
0.0
 30
0.0
  0
INSERT
  5
1024F
330
1024A
100
AcDbEntity
  8
0
  6
ByBlock
347
1000D
 62
     0
440
 16777216
370
    -2
380
     1
100
AcDbBlockReference
  2
*U35
 10
128.4822711302963
 20
0.0
 30
0.0
  0
INSERT
  5
10250
330
1024A
100
AcDbEntity
  8
0
  6
ByBlock
347
1000D
 62
     0
440
 16777216
370
    -2
380
     1
100
AcDbBlockReference
  2
*U35
 10
171.309694840395
 20
0.0
 30
0.0
  0
INSERT
  5
10251
330
1024A
100
AcDbEntity
  8
0
  6
ByBlock
347
1000D
 62
     0
440
 16777216
370
    -2
380
     1
100
AcDbBlockReference
  2
*U35
 10
214.1371185504938
 20
0.0
 30
0.0
  0
ENDBLK
  5
10252
330
1024A
100
AcDbEntity
  8
0
100
AcDbBlockEnd
  0
BLOCK
  5
1025C
330
1025B
100
AcDbEntity
  8
0
100
AcDbBlockBegin
  2
*U37
 70
     1
 10
0.0
 20
0.0
 30
0.0
  3
*U37
  1

  0
LWPOLYLINE
  5
1025D
330
1025B
100
AcDbEntity
  8
0
100
AcDbPolyline
 90
       14
 70
     0
 43
0.0
 10
9.999999999999992
 20
-5.999999999999984
 10
9.999999999999992
 20
-1.800000000000002
 10
9.499999999999992
 20
-1.300000000000002
 10
5.999999999999992
 20
-1.300000000000002
 10
5.999999999999992
 20
1.299999999999998
 10
9.499999999999992
 20
1.299999999999998
 10
9.999999999999992
 20
1.799999999999998
 10
9.999999999999992
 20
5.999999999999991
 10
5.999999999999992
 20
5.999999999999991
 10
5.999999999999992
 20
9.999999999999991
 10
1.800000000000004
 20
9.999999999999991
 10
1.300000000000004
 20
9.499999999999991
 10
1.300000000000004
 20
5.999999999999991
 10
-1.29999999999999
 20
5.999999999999991
  0
LWPOLYLINE
  5
1025E
330
1025B
100
AcDbEntity
  8
0
100
AcDbPolyline
 90
       12
 70
     0
 43
0.0
 10
-9.999999999999992
 20
-1.800000000000002
 10
-9.499999999999992
 20
-1.300000000000002
 10
-5.999999999999992
 20
-1.300000000000002
 10
-5.999999999999992
 20
1.299999999999998
 10
-9.499999999999992
 20
1.299999999999998
 10
-9.999999999999992
 20
1.799999999999998
 10
-9.999999999999992
 20
5.999999999999991
 10
-5.999999999999992
 20
5.999999999999991
 10
-5.999999999999992
 20
9.999999999999991
 10
-1.79999999999999
 20
9.999999999999991
 10
-1.29999999999999
 20
9.499999999999991
 10
-1.29999999999999
 20
5.999999999999991
  0
LWPOLYLINE
  5
1025F
330
1025B
100
AcDbEntity
  8
0
100
AcDbPolyline
 90
       13
 70
     0
 43
0.0
 10
-9.999999999999992
 20
-1.800000000000002
 10
-9.999999999999992
 20
-5.999999999999998
 10
-5.999999999999992
 20
-5.999999999999998
 10
-5.999999999999992
 20
-9.999999999999991
 10
-1.800000000000004
 20
-9.999999999999991
 10
-1.300000000000004
 20
-9.499999999999991
 10
-1.29999999999999
 20
-5.999999999999991
 10
1.300000000000004
 20
-5.999999999999991
 10
1.300000000000004
 20
-9.499999999999991
 10
1.800000000000004
 20
-9.999999999999991
 10
5.999999999999992
 20
-9.999999999999991
 10
5.999999999999992
 20
-5.999999999999984
 10
9.999999999999992
 20
-5.999999999999984
  0
ENDBLK
  5
10260
330
1025B
100
AcDbEntity
  8
0
100
AcDbBlockEnd
  0
BLOCK
  5
10262
330
10261
100
AcDbEntity
  8
0
100
AcDbBlockBegin
  2
*U38
 70
     1
 10
0.0
 20
0.0
 30
0.0
  3
*U38
  1

  0
INSERT
  5
10263
330
10261
100
AcDbEntity
  8
0
  6
ByBlock
347
1000D
 62
     0
440
 16777216
370
    -2
380
     1
100
AcDbBlockReference
  2
*U37
 10
0.0
 20
0.0
 30
0.0
  0
INSERT
  5
10264
330
10261
100
AcDbEntity
  8
0
  6
ByBlock
347
1000D
 62
     0
440
 16777216
370
    -2
380
     1
100
AcDbBlockReference
  2
*U37
 10
42.82742371009876
 20
0.0
 30
0.0
  0
INSERT
  5
10265
330
10261
100
AcDbEntity
  8
0
  6
ByBlock
347
1000D
 62
     0
440
 16777216
370
    -2
380
     1
100
AcDbBlockReference
  2
*U37
 10
85.65484742019753
 20
0.0
 30
0.0
  0
INSERT
  5
10266
330
10261
100
AcDbEntity
  8
0
  6
ByBlock
347
1000D
 62
     0
440
 16777216
370
    -2
380
     1
100
AcDbBlockReference
  2
*U37
 10
128.4822711302963
 20
0.0
 30
0.0
  0
INSERT
  5
10267
330
10261
100
AcDbEntity
  8
0
  6
ByBlock
347
1000D
 62
     0
440
 16777216
370
    -2
380
     1
100
AcDbBlockReference
  2
*U37
 10
171.309694840395
 20
0.0
 30
0.0
  0
INSERT
  5
10268
330
10261
100
AcDbEntity
  8
0
  6
ByBlock
347
1000D
 62
     0
440
 16777216
370
    -2
380
     1
100
AcDbBlockReference
  2
*U37
 10
214.1371185504938
 20
0.0
 30
0.0
  0
ENDBLK
  5
10269
330
10261
100
AcDbEntity
  8
0
100
AcDbBlockEnd
  0
BLOCK
  5
10273
330
10272
100
AcDbEntity
  8
0
100
AcDbBlockBegin
  2
*U39
 70
     1
 10
0.0
 20
0.0
 30
0.0
  3
*U39
  1

  0
LWPOLYLINE
  5
10274
330
10272
100
AcDbEntity
  8
0
100
AcDbPolyline
 90
       16
 70
     1
 43
0.0
 10
25.00000000000001
 20
25.0
 42
0.4142135623730951
 10
-25.0
 20
-25.0
 10
-18.46666666666665
 20
-25.0
 10
-17.96666666666666
 20
-24.5
 10
-17.96666666666666
 20
-21.0
 10
-15.36666666666666
 20
-21.0
 10
-15.36666666666666
 20
-24.5
 10
-14.86666666666666
 20
-25.0
 10
-8.333333333333332
 20
-25.0
 42
-0.4142135623730951
 10
25.0
 20
8.333333333333339
 10
25.0
 20
14.86666666666667
 10
24.50000000000001
 20
15.36666666666667
 10
21.00000000000001
 20
15.36666666666667
 10
21.0
 20
17.96666666666666
 10
24.50000000000001
 20
17.96666666666666
 10
25.0
 20
18.46666666666666
  0
ENDBLK
  5
10275
330
10272
100
AcDbEntity
  8
0
100
AcDbBlockEnd
  0
BLOCK
  5
10277
330
10276
100
AcDbEntity
  8
0
100
AcDbBlockBegin
  2
*U40
 70
     1
 10
0.0
 20
0.0
 30
0.0
  3
*U40
  1

  0
INSERT
  5
10278
330
10276
100
AcDbEntity
  8
0
  6
ByBlock
347
1000D
 62
     0
440
 16777216
370
    -2
380
     1
100
AcDbBlockReference
  2
*U39
 10
0.0
 20
0.0
 30
0.0
  0
INSERT
  5
10279
330
10276
100
AcDbEntity
  8
0
  6
ByBlock
347
1000D
 62
     0
440
 16777216
370
    -2
380
     1
100
AcDbBlockReference
  2
*U39
 10
42.71918650631437
 20
0.0
 30
0.0
  0
INSERT
  5
1027A
330
10276
100
AcDbEntity
  8
0
  6
ByBlock
347
1000D
 62
     0
440
 16777216
370
    -2
380
     1
100
AcDbBlockReference
  2
*U39
 10
85.43837301262874
 20
0.0
 30
0.0
  0
INSERT
  5
1027B
330
10276
100
AcDbEntity
  8
0
  6
ByBlock
347
1000D
 62
     0
440
 16777216
370
    -2
380
     1
100
AcDbBlockReference
  2
*U39
 10
128.1575595189431
 20
0.0
 30
0.0
  0
INSERT
  5
1027C
330
10276
100
AcDbEntity
  8
0
  6
ByBlock
347
1000D
 62
     0
440
 16777216
370
    -2
380
     1
100
AcDbBlockReference
  2
*U39
 10
170.8767460252575
 20
0.0
 30
0.0
  0
INSERT
  5
1027D
330
10276
100
AcDbEntity
  8
0
  6
ByBlock
347
1000D
 62
     0
440
 16777216
370
    -2
380
     1
100
AcDbBlockReference
  2
*U39
 10
213.5959325315718
 20
0.0
 30
0.0
  0
ENDBLK
  5
1027E
330
10276
100
AcDbEntity
  8
0
100
AcDbBlockEnd
  0
BLOCK
  5
10288
330
10287
100
AcDbEntity
  8
0
100
AcDbBlockBegin
  2
*U41
 70
     1
 10
0.0
 20
0.0
 30
0.0
  3
*U41
  1

  0
LWPOLYLINE
  5
10289
330
10287
100
AcDbEntity
  8
0
100
AcDbPolyline
 90
       16
 70
     1
 43
0.0
 10
25.00000000000001
 20
25.0
 42
0.4142135623730951
 10
-25.0
 20
-25.0
 10
-18.46666666666665
 20
-25.0
 10
-17.96666666666666
 20
-24.5
 10
-17.96666666666666
 20
-21.0
 10
-15.36666666666666
 20
-21.0
 10
-15.36666666666666
 20
-24.5
 10
-14.86666666666666
 20
-25.0
 10
-8.333333333333332
 20
-25.0
 42
-0.4142135623730951
 10
25.0
 20
8.333333333333339
 10
25.0
 20
14.86666666666667
 10
24.50000000000001
 20
15.36666666666667
 10
21.00000000000001
 20
15.36666666666667
 10
21.0
 20
17.96666666666666
 10
24.50000000000001
 20
17.96666666666666
 10
25.0
 20
18.46666666666666
  0
ENDBLK
  5
1028A
330
10287
100
AcDbEntity
  8
0
100
AcDbBlockEnd
  0
BLOCK
  5
1028C
330
1028B
100
AcDbEntity
  8
0
100
AcDbBlockBegin
  2
*U42
 70
     1
 10
0.0
 20
0.0
 30
0.0
  3
*U42
  1

  0
INSERT
  5
1028D
330
1028B
100
AcDbEntity
  8
0
  6
ByBlock
347
1000D
 62
     0
440
 16777216
370
    -2
380
     1
100
AcDbBlockReference
  2
*U41
 10
0.0
 20
0.0
 30
0.0
  0
INSERT
  5
1028E
330
1028B
100
AcDbEntity
  8
0
  6
ByBlock
347
1000D
 62
     0
440
 16777216
370
    -2
380
     1
100
AcDbBlockReference
  2
*U41
 10
42.71918650631437
 20
0.0
 30
0.0
  0
INSERT
  5
1028F
330
1028B
100
AcDbEntity
  8
0
  6
ByBlock
347
1000D
 62
     0
440
 16777216
370
    -2
380
     1
100
AcDbBlockReference
  2
*U41
 10
85.43837301262874
 20
0.0
 30
0.0
  0
INSERT
  5
10290
330
1028B
100
AcDbEntity
  8
0
  6
ByBlock
347
1000D
 62
     0
440
 16777216
370
    -2
380
     1
100
AcDbBlockReference
  2
*U41
 10
128.1575595189431
 20
0.0
 30
0.0
  0
INSERT
  5
10291
330
1028B
100
AcDbEntity
  8
0
  6
ByBlock
347
1000D
 62
     0
440
 16777216
370
    -2
380
     1
100
AcDbBlockReference
  2
*U41
 10
170.8767460252575
 20
0.0
 30
0.0
  0
INSERT
  5
10292
330
1028B
100
AcDbEntity
  8
0
  6
ByBlock
347
1000D
 62
     0
440
 16777216
370
    -2
380
     1
100
AcDbBlockReference
  2
*U41
 10
213.5959325315718
 20
0.0
 30
0.0
  0
ENDBLK
  5
10293
330
1028B
100
AcDbEntity
  8
0
100
AcDbBlockEnd
  0
BLOCK
  5
1029D
330
1029C
100
AcDbEntity
  8
0
100
AcDbBlockBegin
  2
*U43
 70
     1
 10
0.0
 20
0.0
 30
0.0
  3
*U43
  1

  0
LWPOLYLINE
  5
1029E
330
1029C
100
AcDbEntity
  8
0
100
AcDbPolyline
 90
       14
 70
     0
 43
0.0
 10
9.999999999999992
 20
-5.999999999999984
 10
9.999999999999992
 20
-1.800000000000002
 10
9.499999999999992
 20
-1.300000000000002
 10
5.999999999999992
 20
-1.300000000000002
 10
5.999999999999992
 20
1.299999999999998
 10
9.499999999999992
 20
1.299999999999998
 10
9.999999999999992
 20
1.799999999999998
 10
9.999999999999992
 20
5.999999999999991
 10
5.999999999999992
 20
5.999999999999991
 10
5.999999999999992
 20
9.999999999999991
 10
1.800000000000004
 20
9.999999999999991
 10
1.300000000000004
 20
9.499999999999991
 10
1.300000000000004
 20
5.999999999999991
 10
-1.29999999999999
 20
5.999999999999991
  0
LWPOLYLINE
  5
1029F
330
1029C
100
AcDbEntity
  8
0
100
AcDbPolyline
 90
       12
 70
     0
 43
0.0
 10
-9.999999999999992
 20
-1.800000000000002
 10
-9.499999999999992
 20
-1.300000000000002
 10
-5.999999999999992
 20
-1.300000000000002
 10
-5.999999999999992
 20
1.299999999999998
 10
-9.499999999999992
 20
1.299999999999998
 10
-9.999999999999992
 20
1.799999999999998
 10
-9.999999999999992
 20
5.999999999999991
 10
-5.999999999999992
 20
5.999999999999991
 10
-5.999999999999992
 20
9.999999999999991
 10
-1.79999999999999
 20
9.999999999999991
 10
-1.29999999999999
 20
9.499999999999991
 10
-1.29999999999999
 20
5.999999999999991
  0
LWPOLYLINE
  5
102A0
330
1029C
100
AcDbEntity
  8
0
100
AcDbPolyline
 90
       13
 70
     0
 43
0.0
 10
-9.999999999999992
 20
-1.800000000000002
 10
-9.999999999999992
 20
-5.999999999999998
 10
-5.999999999999992
 20
-5.999999999999998
 10
-5.999999999999992
 20
-9.999999999999991
 10
-1.800000000000004
 20
-9.999999999999991
 10
-1.300000000000004
 20
-9.499999999999991
 10
-1.29999999999999
 20
-5.999999999999991
 10
1.300000000000004
 20
-5.999999999999991
 10
1.300000000000004
 20
-9.499999999999991
 10
1.800000000000004
 20
-9.999999999999991
 10
5.999999999999992
 20
-9.999999999999991
 10
5.999999999999992
 20
-5.999999999999984
 10
9.999999999999992
 20
-5.999999999999984
  0
ENDBLK
  5
102A1
330
1029C
100
AcDbEntity
  8
0
100
AcDbBlockEnd
  0
BLOCK
  5
102A3
330
102A2
100
AcDbEntity
  8
0
100
AcDbBlockBegin
  2
*U44
 70
     1
 10
0.0
 20
0.0
 30
0.0
  3
*U44
  1

  0
INSERT
  5
102A4
330
102A2
100
AcDbEntity
  8
0
  6
ByBlock
347
1000D
 62
     0
440
 16777216
370
    -2
380
     1
100
AcDbBlockReference
  2
*U43
 10
0.0
 20
0.0
 30
0.0
  0
INSERT
  5
102A5
330
102A2
100
AcDbEntity
  8
0
  6
ByBlock
347
1000D
 62
     0
440
 16777216
370
    -2
380
     1
100
AcDbBlockReference
  2
*U43
 10
42.82742371009876
 20
0.0
 30
0.0
  0
INSERT
  5
102A6
330
102A2
100
AcDbEntity
  8
0
  6
ByBlock
347
1000D
 62
     0
440
 16777216
370
    -2
380
     1
100
AcDbBlockReference
  2
*U43
 10
85.65484742019753
 20
0.0
 30
0.0
  0
INSERT
  5
102A7
330
102A2
100
AcDbEntity
  8
0
  6
ByBlock
347
1000D
 62
     0
440
 16777216
370
    -2
380
     1
100
AcDbBlockReference
  2
*U43
 10
128.4822711302963
 20
0.0
 30
0.0
  0
INSERT
  5
102A8
330
102A2
100
AcDbEntity
  8
0
  6
ByBlock
347
1000D
 62
     0
440
 16777216
370
    -2
380
     1
100
AcDbBlockReference
  2
*U43
 10
171.309694840395
 20
0.0
 30
0.0
  0
INSERT
  5
102A9
330
102A2
100
AcDbEntity
  8
0
  6
ByBlock
347
1000D
 62
     0
440
 16777216
370
    -2
380
     1
100
AcDbBlockReference
  2
*U43
 10
214.1371185504938
 20
0.0
 30
0.0
  0
ENDBLK
  5
102AA
330
102A2
100
AcDbEntity
  8
0
100
AcDbBlockEnd
  0
BLOCK
  5
102B4
330
102B3
100
AcDbEntity
  8
0
100
AcDbBlockBegin
  2
*U45
 70
     1
 10
0.0
 20
0.0
 30
0.0
  3
*U45
  1

  0
LWPOLYLINE
  5
102B5
330
102B3
100
AcDbEntity
  8
0
100
AcDbPolyline
 90
       14
 70
     0
 43
0.0
 10
9.999999999999992
 20
-5.999999999999984
 10
9.999999999999992
 20
-1.800000000000002
 10
9.499999999999992
 20
-1.300000000000002
 10
5.999999999999992
 20
-1.300000000000002
 10
5.999999999999992
 20
1.299999999999998
 10
9.499999999999992
 20
1.299999999999998
 10
9.999999999999992
 20
1.799999999999998
 10
9.999999999999992
 20
5.999999999999991
 10
5.999999999999992
 20
5.999999999999991
 10
5.999999999999992
 20
9.999999999999991
 10
1.800000000000004
 20
9.999999999999991
 10
1.300000000000004
 20
9.499999999999991
 10
1.300000000000004
 20
5.999999999999991
 10
-1.29999999999999
 20
5.999999999999991
  0
LWPOLYLINE
  5
102B6
330
102B3
100
AcDbEntity
  8
0
100
AcDbPolyline
 90
       12
 70
     0
 43
0.0
 10
-9.999999999999992
 20
-1.800000000000002
 10
-9.499999999999992
 20
-1.300000000000002
 10
-5.999999999999992
 20
-1.300000000000002
 10
-5.999999999999992
 20
1.299999999999998
 10
-9.499999999999992
 20
1.299999999999998
 10
-9.999999999999992
 20
1.799999999999998
 10
-9.999999999999992
 20
5.999999999999991
 10
-5.999999999999992
 20
5.999999999999991
 10
-5.999999999999992
 20
9.999999999999991
 10
-1.79999999999999
 20
9.999999999999991
 10
-1.29999999999999
 20
9.499999999999991
 10
-1.29999999999999
 20
5.999999999999991
  0
LWPOLYLINE
  5
102B7
330
102B3
100
AcDbEntity
  8
0
100
AcDbPolyline
 90
       13
 70
     0
 43
0.0
 10
-9.999999999999992
 20
-1.800000000000002
 10
-9.999999999999992
 20
-5.999999999999998
 10
-5.999999999999992
 20
-5.999999999999998
 10
-5.999999999999992
 20
-9.999999999999991
 10
-1.800000000000004
 20
-9.999999999999991
 10
-1.300000000000004
 20
-9.499999999999991
 10
-1.29999999999999
 20
-5.999999999999991
 10
1.300000000000004
 20
-5.999999999999991
 10
1.300000000000004
 20
-9.499999999999991
 10
1.800000000000004
 20
-9.999999999999991
 10
5.999999999999992
 20
-9.999999999999991
 10
5.999999999999992
 20
-5.999999999999984
 10
9.999999999999992
 20
-5.999999999999984
  0
ENDBLK
  5
102B8
330
102B3
100
AcDbEntity
  8
0
100
AcDbBlockEnd
  0
BLOCK
  5
102BA
330
102B9
100
AcDbEntity
  8
0
100
AcDbBlockBegin
  2
*U46
 70
     1
 10
0.0
 20
0.0
 30
0.0
  3
*U46
  1

  0
INSERT
  5
102BB
330
102B9
100
AcDbEntity
  8
0
  6
ByBlock
347
1000D
 62
     0
440
 16777216
370
    -2
380
     1
100
AcDbBlockReference
  2
*U45
 10
0.0
 20
0.0
 30
0.0
  0
INSERT
  5
102BC
330
102B9
100
AcDbEntity
  8
0
  6
ByBlock
347
1000D
 62
     0
440
 16777216
370
    -2
380
     1
100
AcDbBlockReference
  2
*U45
 10
42.82742371009876
 20
0.0
 30
0.0
  0
INSERT
  5
102BD
330
102B9
100
AcDbEntity
  8
0
  6
ByBlock
347
1000D
 62
     0
440
 16777216
370
    -2
380
     1
100
AcDbBlockReference
  2
*U45
 10
85.65484742019753
 20
0.0
 30
0.0
  0
INSERT
  5
102BE
330
102B9
100
AcDbEntity
  8
0
  6
ByBlock
347
1000D
 62
     0
440
 16777216
370
    -2
380
     1
100
AcDbBlockReference
  2
*U45
 10
128.4822711302963
 20
0.0
 30
0.0
  0
INSERT
  5
102BF
330
102B9
100
AcDbEntity
  8
0
  6
ByBlock
347
1000D
 62
     0
440
 16777216
370
    -2
380
     1
100
AcDbBlockReference
  2
*U45
 10
171.309694840395
 20
0.0
 30
0.0
  0
INSERT
  5
102C0
330
102B9
100
AcDbEntity
  8
0
  6
ByBlock
347
1000D
 62
     0
440
 16777216
370
    -2
380
     1
100
AcDbBlockReference
  2
*U45
 10
214.1371185504938
 20
0.0
 30
0.0
  0
ENDBLK
  5
102C1
330
102B9
100
AcDbEntity
  8
0
100
AcDbBlockEnd
  0
BLOCK
  5
102CB
330
102CA
100
AcDbEntity
  8
0
100
AcDbBlockBegin
  2
*U47
 70
     1
 10
0.0
 20
0.0
 30
0.0
  3
*U47
  1

  0
LWPOLYLINE
  5
102CC
330
102CA
100
AcDbEntity
  8
0
100
AcDbPolyline
 90
       16
 70
     1
 43
0.0
 10
25.00000000000001
 20
25.0
 42
0.4142135623730951
 10
-25.0
 20
-25.0
 10
-18.46666666666665
 20
-25.0
 10
-17.96666666666666
 20
-24.5
 10
-17.96666666666666
 20
-21.0
 10
-15.36666666666666
 20
-21.0
 10
-15.36666666666666
 20
-24.5
 10
-14.86666666666666
 20
-25.0
 10
-8.333333333333332
 20
-25.0
 42
-0.4142135623730951
 10
25.0
 20
8.333333333333339
 10
25.0
 20
14.86666666666667
 10
24.50000000000001
 20
15.36666666666667
 10
21.00000000000001
 20
15.36666666666667
 10
21.0
 20
17.96666666666666
 10
24.50000000000001
 20
17.96666666666666
 10
25.0
 20
18.46666666666666
  0
ENDBLK
  5
102CD
330
102CA
100
AcDbEntity
  8
0
100
AcDbBlockEnd
  0
BLOCK
  5
102CF
330
102CE
100
AcDbEntity
  8
0
100
AcDbBlockBegin
  2
*U48
 70
     1
 10
0.0
 20
0.0
 30
0.0
  3
*U48
  1

  0
INSERT
  5
102D0
330
102CE
100
AcDbEntity
  8
0
  6
ByBlock
347
1000D
 62
     0
440
 16777216
370
    -2
380
     1
100
AcDbBlockReference
  2
*U47
 10
0.0
 20
0.0
 30
0.0
  0
INSERT
  5
102D1
330
102CE
100
AcDbEntity
  8
0
  6
ByBlock
347
1000D
 62
     0
440
 16777216
370
    -2
380
     1
100
AcDbBlockReference
  2
*U47
 10
42.71918650631437
 20
0.0
 30
0.0
  0
INSERT
  5
102D2
330
102CE
100
AcDbEntity
  8
0
  6
ByBlock
347
1000D
 62
     0
440
 16777216
370
    -2
380
     1
100
AcDbBlockReference
  2
*U47
 10
85.43837301262874
 20
0.0
 30
0.0
  0
INSERT
  5
102D3
330
102CE
100
AcDbEntity
  8
0
  6
ByBlock
347
1000D
 62
     0
440
 16777216
370
    -2
380
     1
100
AcDbBlockReference
  2
*U47
 10
128.1575595189431
 20
0.0
 30
0.0
  0
INSERT
  5
102D4
330
102CE
100
AcDbEntity
  8
0
  6
ByBlock
347
1000D
 62
     0
440
 16777216
370
    -2
380
     1
100
AcDbBlockReference
  2
*U47
 10
170.8767460252575
 20
0.0
 30
0.0
  0
INSERT
  5
102D5
330
102CE
100
AcDbEntity
  8
0
  6
ByBlock
347
1000D
 62
     0
440
 16777216
370
    -2
380
     1
100
AcDbBlockReference
  2
*U47
 10
213.5959325315718
 20
0.0
 30
0.0
  0
ENDBLK
  5
102D6
330
102CE
100
AcDbEntity
  8
0
100
AcDbBlockEnd
  0
BLOCK
  5
102E0
330
102DF
100
AcDbEntity
  8
0
100
AcDbBlockBegin
  2
*U49
 70
     1
 10
0.0
 20
0.0
 30
0.0
  3
*U49
  1

  0
LWPOLYLINE
  5
102E1
330
102DF
100
AcDbEntity
  8
0
100
AcDbPolyline
 90
       14
 70
     0
 43
0.0
 10
9.999999999999992
 20
-5.999999999999984
 10
9.999999999999992
 20
-1.800000000000002
 10
9.499999999999992
 20
-1.300000000000002
 10
5.999999999999992
 20
-1.300000000000002
 10
5.999999999999992
 20
1.299999999999998
 10
9.499999999999992
 20
1.299999999999998
 10
9.999999999999992
 20
1.799999999999998
 10
9.999999999999992
 20
5.999999999999991
 10
5.999999999999992
 20
5.999999999999991
 10
5.999999999999992
 20
9.999999999999991
 10
1.800000000000004
 20
9.999999999999991
 10
1.300000000000004
 20
9.499999999999991
 10
1.300000000000004
 20
5.999999999999991
 10
-1.29999999999999
 20
5.999999999999991
  0
LWPOLYLINE
  5
102E2
330
102DF
100
AcDbEntity
  8
0
100
AcDbPolyline
 90
       12
 70
     0
 43
0.0
 10
-9.999999999999992
 20
-1.800000000000002
 10
-9.499999999999992
 20
-1.300000000000002
 10
-5.999999999999992
 20
-1.300000000000002
 10
-5.999999999999992
 20
1.299999999999998
 10
-9.499999999999992
 20
1.299999999999998
 10
-9.999999999999992
 20
1.799999999999998
 10
-9.999999999999992
 20
5.999999999999991
 10
-5.999999999999992
 20
5.999999999999991
 10
-5.999999999999992
 20
9.999999999999991
 10
-1.79999999999999
 20
9.999999999999991
 10
-1.29999999999999
 20
9.499999999999991
 10
-1.29999999999999
 20
5.999999999999991
  0
LWPOLYLINE
  5
102E3
330
102DF
100
AcDbEntity
  8
0
100
AcDbPolyline
 90
       13
 70
     0
 43
0.0
 10
-9.999999999999992
 20
-1.800000000000002
 10
-9.999999999999992
 20
-5.999999999999998
 10
-5.999999999999992
 20
-5.999999999999998
 10
-5.999999999999992
 20
-9.999999999999991
 10
-1.800000000000004
 20
-9.999999999999991
 10
-1.300000000000004
 20
-9.499999999999991
 10
-1.29999999999999
 20
-5.999999999999991
 10
1.300000000000004
 20
-5.999999999999991
 10
1.300000000000004
 20
-9.499999999999991
 10
1.800000000000004
 20
-9.999999999999991
 10
5.999999999999992
 20
-9.999999999999991
 10
5.999999999999992
 20
-5.999999999999984
 10
9.999999999999992
 20
-5.999999999999984
  0
ENDBLK
  5
102E4
330
102DF
100
AcDbEntity
  8
0
100
AcDbBlockEnd
  0
BLOCK
  5
102E6
330
102E5
100
AcDbEntity
  8
0
100
AcDbBlockBegin
  2
*U50
 70
     1
 10
0.0
 20
0.0
 30
0.0
  3
*U50
  1

  0
INSERT
  5
102E7
330
102E5
100
AcDbEntity
  8
0
  6
ByBlock
347
1000D
 62
     0
440
 16777216
370
    -2
380
     1
100
AcDbBlockReference
  2
*U49
 10
0.0
 20
0.0
 30
0.0
  0
INSERT
  5
102E8
330
102E5
100
AcDbEntity
  8
0
  6
ByBlock
347
1000D
 62
     0
440
 16777216
370
    -2
380
     1
100
AcDbBlockReference
  2
*U49
 10
42.82742371009876
 20
0.0
 30
0.0
  0
INSERT
  5
102E9
330
102E5
100
AcDbEntity
  8
0
  6
ByBlock
347
1000D
 62
     0
440
 16777216
370
    -2
380
     1
100
AcDbBlockReference
  2
*U49
 10
85.65484742019753
 20
0.0
 30
0.0
  0
INSERT
  5
102EA
330
102E5
100
AcDbEntity
  8
0
  6
ByBlock
347
1000D
 62
     0
440
 16777216
370
    -2
380
     1
100
AcDbBlockReference
  2
*U49
 10
128.4822711302963
 20
0.0
 30
0.0
  0
INSERT
  5
102EB
330
102E5
100
AcDbEntity
  8
0
  6
ByBlock
347
1000D
 62
     0
440
 16777216
370
    -2
380
     1
100
AcDbBlockReference
  2
*U49
 10
171.309694840395
 20
0.0
 30
0.0
  0
INSERT
  5
102EC
330
102E5
100
AcDbEntity
  8
0
  6
ByBlock
347
1000D
 62
     0
440
 16777216
370
    -2
380
     1
100
AcDbBlockReference
  2
*U49
 10
214.1371185504938
 20
0.0
 30
0.0
  0
ENDBLK
  5
102ED
330
102E5
100
AcDbEntity
  8
0
100
AcDbBlockEnd
  0
ENDSEC
  0
SECTION
  2
ENTITIES
  0
INSERT
  5
100C3
102
{ACAD_REACTORS
330
100D0
102
}
330
1F
100
AcDbEntity
  8
0
  6
Continuous
100
AcDbBlockReference
  2
*U3
 10
-25.0
 20
25.0
 30
0.0
  0
INSERT
  5
100DA
102
{ACAD_REACTORS
330
100EE
102
}
330
1F
100
AcDbEntity
  8
0
  6
Continuous
100
AcDbBlockReference
  2
*U6
 10
-25.83318645775808
 20
82.88065594083866
 30
0.0
  0
INSERT
  5
100FE
102
{ACAD_REACTORS
330
10109
102
}
330
1F
100
AcDbEntity
  8
0
  6
Continuous
100
AcDbBlockReference
  2
*U8
 10
-19.42232513909575
 20
5.008812911007138
 30
0.0
  0
INSERT
  5
10112
102
{ACAD_REACTORS
330
10128
102
}
330
1F
100
AcDbEntity
  8
0
  6
Continuous
100
AcDbBlockReference
  2
*U11
 10
-19.94417791865103
 20
64.71390539517861
 30
0.0
  0
INSERT
  5
1014E
102
{ACAD_REACTORS
330
10165
102
}
330
1F
100
AcDbEntity
  8
0
  6
Continuous
100
AcDbBlockReference
  2
*U14
 10
-25.0
 20
-86.60855880795862
 30
0.0
  0
INSERT
  5
1014F
102
{ACAD_REACTORS
330
1017A
102
}
330
1F
100
AcDbEntity
  8
0
  6
Continuous
100
AcDbBlockReference
  2
*U16
 10
-25.83318645775808
 20
-32.06581431664279
 30
0.0
  0
INSERT
  5
10150
102
{ACAD_REACTORS
330
10191
102
}
330
1F
100
AcDbEntity
  8
0
  6
Continuous
100
AcDbBlockReference
  2
*U18
 10
-19.42232513909575
 20
-106.5997458969514
 30
0.0
  0
INSERT
  5
10151
102
{ACAD_REACTORS
330
101A8
102
}
330
1F
100
AcDbEntity
  8
0
  6
Continuous
100
AcDbBlockReference
  2
*U20
 10
-19.94417791865103
 20
-50.23256486230284
 30
0.0
  0
INSERT
  5
101AF
102
{ACAD_REACTORS
330
101DA
102
}
330
1F
100
AcDbEntity
  8
0
  6
Continuous
100
AcDbBlockReference
  2
*U25
 10
-25.83318645775808
 20
-142.290905308068
 30
0.0
  0
INSERT
  5
101B1
102
{ACAD_REACTORS
330
10208
102
}
330
1F
100
AcDbEntity
  8
0
  6
Continuous
100
AcDbBlockReference
  2
*U29
 10
-19.94417791865103
 20
-160.457655853728
 30
0.0
  0
INSERT
  5
1020E
102
{ACAD_REACTORS
330
1022B
102
}
330
1F
100
AcDbEntity
  8
0
  6
Continuous
100
AcDbBlockReference
  2
*U32
 10
234.0425439541823
 20
25.0
 30
0.0
  0
INSERT
  5
1020F
102
{ACAD_REACTORS
330
10240
102
}
330
1F
100
AcDbEntity
  8
0
  6
Continuous
100
AcDbBlockReference
  2
*U34
 10
233.2093574964242
 20
82.88065594083866
 30
0.0
  0
INSERT
  5
10210
102
{ACAD_REACTORS
330
10257
102
}
330
1F
100
AcDbEntity
  8
0
  6
Continuous
100
AcDbBlockReference
  2
*U36
 10
239.6202188150865
 20
5.008812911007138
 30
0.0
  0
INSERT
  5
10211
102
{ACAD_REACTORS
330
1026E
102
}
330
1F
100
AcDbEntity
  8
0
  6
Continuous
100
AcDbBlockReference
  2
*U38
 10
239.0983660355312
 20
64.71390539517861
 30
0.0
  0
INSERT
  5
10212
102
{ACAD_REACTORS
330
10283
102
}
330
1F
100
AcDbEntity
  8
0
  6
Continuous
100
AcDbBlockReference
  2
*U40
 10
234.0425439541823
 20
-86.60855880795862
 30
0.0
  0
INSERT
  5
10213
102
{ACAD_REACTORS
330
10298
102
}
330
1F
100
AcDbEntity
  8
0
  6
Continuous
100
AcDbBlockReference
  2
*U42
 10
233.2093574964242
 20
-32.06581431664279
 30
0.0
  0
INSERT
  5
10214
102
{ACAD_REACTORS
330
102AF
102
}
330
1F
100
AcDbEntity
  8
0
  6
Continuous
100
AcDbBlockReference
  2
*U44
 10
239.6202188150865
 20
-106.5997458969514
 30
0.0
  0
INSERT
  5
10215
102
{ACAD_REACTORS
330
102C6
102
}
330
1F
100
AcDbEntity
  8
0
  6
Continuous
100
AcDbBlockReference
  2
*U46
 10
239.0983660355312
 20
-50.23256486230284
 30
0.0
  0
INSERT
  5
10216
102
{ACAD_REACTORS
330
102DB
102
}
330
1F
100
AcDbEntity
  8
0
  6
Continuous
100
AcDbBlockReference
  2
*U48
 10
233.2093574964242
 20
-142.290905308068
 30
0.0
  0
INSERT
  5
10217
102
{ACAD_REACTORS
330
102F2
102
}
330
1F
100
AcDbEntity
  8
0
  6
Continuous
100
AcDbBlockReference
  2
*U50
 10
239.0983660355312
 20
-160.457655853728
 30
0.0
  0
ENDSEC
  0
SECTION
  2
OBJECTS
  0
DICTIONARY
  5
C
330
0
100
AcDbDictionary
281
     1
  3
ACAD_ASSOCNETWORK
350
100C8
  3
ACAD_CIP_PREVIOUS_PRODUCT_INFO
350
1005A
  3
ACAD_COLOR
350
10036
  3
ACAD_DETAILVIEWSTYLE
350
10051
  3
ACAD_GROUP
350
D
  3
ACAD_LAYOUT
350
10037
  3
ACAD_MATERIAL
350
10004
  3
ACAD_MLEADERSTYLE
350
1004D
  3
ACAD_MLINESTYLE
350
17
  3
ACAD_PLOTSETTINGS
350
10054
  3
ACAD_PLOTSTYLENAME
350
10002
  3
ACAD_SCALELIST
350
1003B
  3
ACAD_SECTIONVIEWSTYLE
350
1004F
  3
ACAD_TABLESTYLE
350
10038
  3
ACAD_VISUALSTYLE
350
1001D
  3
ACDB_RECOMPOSE_DATA
350
1030B
  3
AcDbVariableDictionary
350
100D2
  0
DICTIONARY
  5
10133
330
2
100
AcDbDictionary
280
     1
281
     1
  3
ACAD_LAYERSTATES
360
10134
  0
DICTIONARY
  5
1012E
330
50
100
AcDbDictionary
280
     1
281
     1
  3
ADSK_XREC_LAYER_RECONCILED
360
1012F
  0
DICTIONARY
  5
10080
330
1F
100
AcDbDictionary
280
     1
281
     1
  3
ACAD_ASSOCNETWORK
360
100C6
  3
ACAD_SORTENTS
360
10081
  0
DICTIONARY
  5
100C8
102
{ACAD_REACTORS
330
C
102
}
330
C
100
AcDbDictionary
281
     1
  3
ACAD_ASSOCNETWORK
350
100C9
  0
XRECORD
  5
1005A
102
{ACAD_REACTORS
330
C
102
}
330
C
100
AcDbXrecord
280
     1
300
ACD
300
2019
300
ACD_F_S
  0
DICTIONARY
  5
10036
102
{ACAD_REACTORS
330
C
102
}
330
C
100
AcDbDictionary
281
     1
  0
DICTIONARY
  5
10051
102
{ACAD_REACTORS
330
C
102
}
330
C
100
AcDbDictionary
281
     1
  3
Imperial24
350
10052
  0
DICTIONARY
  5
D
330
C
100
AcDbDictionary
281
     1
  0
DICTIONARY
  5
10037
102
{ACAD_REACTORS
330
C
102
}
330
C
100
AcDbDictionary
281
     1
  3
Model
350
10055
  3
布局1
350
10056
  0
DICTIONARY
  5
10004
102
{ACAD_REACTORS
330
C
102
}
330
C
100
AcDbDictionary
281
     1
  3
ByBlock
350
1000D
  3
ByLayer
350
10005
  3
Global
350
10015
  0
DICTIONARY
  5
1004D
102
{ACAD_REACTORS
330
C
102
}
330
C
100
AcDbDictionary
281
     1
  3
Standard
350
1004E
  0
DICTIONARY
  5
17
330
C
100
AcDbDictionary
281
     1
  3
Standard
350
1003A
  0
DICTIONARY
  5
10054
102
{ACAD_REACTORS
330
C
102
}
330
C
100
AcDbDictionary
281
     1
  0
ACDBDICTIONARYWDFLT
  5
10002
102
{ACAD_REACTORS
330
C
102
}
330
C
100
AcDbDictionary
281
     1
  3
Normal
350
10003
100
AcDbDictionaryWithDefault
340
10003
  0
DICTIONARY
  5
1003B
102
{ACAD_REACTORS
330
C
102
}
330
C
100
AcDbDictionary
281
     1
  3
A0
350
1003C
  3
A1
350
1003D
  3
A2
350
1003E
  3
A3
350
1003F
  3
A4
350
10040
  3
A5
350
10041
  3
A6
350
10042
  3
A7
350
10043
  3
A8
350
10044
  3
A9
350
10045
  3
B0
350
10046
  3
B1
350
10047
  3
B2
350
10048
  3
B3
350
10049
  3
B4
350
1004A
  3
B5
350
1004B
  3
B6
350
1004C
  0
DICTIONARY
  5
1004F
102
{ACAD_REACTORS
330
C
102
}
330
C
100
AcDbDictionary
281
     1
  3
Imperial24
350
10050
  0
DICTIONARY
  5
10038
102
{ACAD_REACTORS
330
C
102
}
330
C
100
AcDbDictionary
281
     1
  3
Standard
350
10039
  0
DICTIONARY
  5
1001D
102
{ACAD_REACTORS
330
C
102
}
330
C
100
AcDbDictionary
281
     1
  3
2dWireframe
350
10023
  3
Basic
350
10022
  3
Brighten
350
10029
  3
ColorChange
350
1002D
  3
Conceptual
350
10026
  3
Dim
350
10028
  3
EdgeColorOff
350
10035
  3
Facepattern
350
1002C
  3
Flat
350
1001E
  3
FlatWithEdges
350
1001F
  3
Gouraud
350
10020
  3
GouraudWithEdges
350
10021
  3
Hidden
350
10025
  3
JitterOff
350
10033
  3
Linepattern
350
1002B
  3
OverhangOff
350
10034
  3
Realistic
350
10027
  3
Shaded
350
10032
  3
Shaded with edges
350
10031
  3
Shades of Gray
350
1002E
  3
Sketchy
350
1002F
  3
Thicken
350
1002A
  3
Wireframe
350
10024
  3
X-Ray
350
10030
  0
XRECORD
  5
1030B
102
{ACAD_REACTORS
330
C
102
}
330
C
100
AcDbXrecord
280
     1
 90
        1
330
10039
  0
DICTIONARY
  5
100D2
102
{ACAD_REACTORS
330
C
102
}
330
C
100
AcDbDictionary
281
     1
  3
CANNOSCALE
350
10147
  3
CMLEADERSTYLE
350
10143
  3
CTABLESTYLE
350
10142
  3
CVIEWDETAILSTYLE
350
10144
  3
CVIEWSECTIONSTYLE
350
10145
  3
LAYEREVAL
350
10149
  3
LAYERNOTIFY
350
1014A
  3
LIGHTINGUNITS
350
10148
  3
MSLTSCALE
350
10146
  0
DICTIONARY
  5
10134
102
{ACAD_REACTORS
330
10133
102
}
330
10133
100
AcDbDictionary
281
     1
  0
XRECORD
  5
1012F
102
{ACAD_REACTORS
330
1012E
102
}
330
1012E
100
AcDbXrecord
280
     1
290
     1
  0
DICTIONARY
  5
100C6
102
{ACAD_REACTORS
330
10080
102
}
330
10080
100
AcDbDictionary
281
     1
  3
ACAD_ASSOCNETWORK
350
100C7
  0
SORTENTSTABLE
  5
10081
102
{ACAD_REACTORS
330
10080
102
}
330
10080
100
AcDbSortentsTable
330
1F
  0
ACDBASSOCNETWORK
  5
100C9
102
{ACAD_REACTORS
330
100C8
102
}
330
100C8
100
AcDbAssocAction
 90
        2
 90
        0
330
0
360
0
 90
        0
 90
        0
 90
        0
 90
        0
 90
        0
 90
        0
 90
        0
100
AcDbAssocNetwork
 90
        0
 90
        1
 90
        1
330
100C7
 90
        0
  0
ACDBDETAILVIEWSTYLE
  5
10052
102
{ACAD_REACTORS
330
10051
102
}
330
10051
100
AcDbModelDocViewStyle
 70
     0
  3
Imperial24
290
     0
300
Imperial24
 90
        0
100
AcDbDetailViewStyle
 70
     0
 71
     0
 90
        3
 71
     1
340
11
 62
   256
 40
0.24
340
0
 62
   256
 40
0.24
300

 40
0.36
280
     3
 71
     2
340
0
 90
       25
 62
   256
 71
     3
340
11
 62
   256
 40
0.24
 90
        1
 40
0.75
 90
        1
300
%<\AcVar ViewType \f "%tc1">% %<\AcVar ViewDetailId>%\PSCALE %<\AcVar ViewScale \f "%sn">%
 71
     4
340
0
 90
       25
 62
   256
340
0
 90
       25
 62
   256
280
     0
  0
LAYOUT
  5
10055
102
{ACAD_REACTORS
330
10037
102
}
330
10037
100
AcDbPlotSettings
  1

  2
Adobe PDF
  4

  6

 40
0.0
 41
0.0
 42
0.0
 43
0.0
 44
0.0
 45
0.0
 46
0.0
 47
0.0
 48
0.0
 49
0.0
140
0.0
141
0.0
142
1.0
143
1.0
 70
  1712
 72
     0
 73
     0
 74
     0
  7

 75
     0
147
1.0
 76
     0
 77
     2
 78
   300
148
0.0
149
0.0
100
AcDbLayout
  1
Model
 70
     1
 71
     0
 10
0.0
 20
0.0
 11
12.0
 21
9.0
 12
0.0
 22
0.0
 32
0.0
 14
0.0
 24
0.0
 34
0.0
 15
0.0
 25
0.0
 35
0.0
146
0.0
 13
0.0
 23
0.0
 33
0.0
 16
1.0
 26
0.0
 36
0.0
 17
0.0
 27
1.0
 37
0.0
 76
     0
330
1F
331
10059
  0
LAYOUT
  5
10056
102
{ACAD_REACTORS
330
10037
102
}
330
10037
100
AcDbPlotSettings
  1

  2
Adobe PDF
  4

  6

 40
0.0
 41
0.0
 42
0.0
 43
0.0
 44
0.0
 45
0.0
 46
0.0
 47
0.0
 48
0.0
 49
0.0
140
0.0
141
0.0
142
1.0
143
1.0
 70
   688
 72
     0
 73
     0
 74
     5
  7

 75
    16
147
1.0
 76
     0
 77
     2
 78
   300
148
0.0
149
0.0
100
AcDbLayout
  1
布局1
 70
     1
 71
     1
 10
0.0
 20
0.0
 11
12.0
 21
9.0
 12
0.0
 22
0.0
 32
0.0
 14
1.000000000000000E+20
 24
1.000000000000000E+20
 34
1.000000000000000E+20
 15
-1.000000000000000E+20
 25
-1.000000000000000E+20
 35
-1.000000000000000E+20
146
0.0
 13
0.0
 23
0.0
 33
0.0
 16
1.0
 26
0.0
 36
0.0
 17
0.0
 27
1.0
 37
0.0
 76
     0
330
1B
  0
MATERIAL
  5
1000D
102
{ACAD_XDICTIONARY
360
1000E
102
}
102
{ACAD_REACTORS
330
10004
102
}
330
10004
100
AcDbMaterial
  1
ByBlock
 72
     0
 43
0.0008202099737533
 43
0.0
 43
0.0
 43
0.0
 43
0.0
 43
0.0008202099737533
 43
0.0
 43
0.0
 43
0.0
 43
0.0
 43
1.0
 43
0.0
 43
0.0
 43
0.0
 43
0.0
 43
1.0
 77
     0
 47
0.0008202099737533
 47
0.0
 47
0.0
 47
0.0
 47
0.0
 47
0.0008202099737533
 47
0.0
 47
0.0
 47
0.0
 47
0.0
 47
1.0
 47
0.0
 47
0.0
 47
0.0
 47
0.0
 47
1.0
171
     0
 49
0.0008202099737533
 49
0.0
 49
0.0
 49
0.0
 49
0.0
 49
0.0008202099737533
 49
0.0
 49
0.0
 49
0.0
 49
0.0
 49
1.0
 49
0.0
 49
0.0
 49
0.0
 49
0.0
 49
1.0
175
     0
142
0.0008202099737533
142
0.0
142
0.0
142
0.0
142
0.0
142
0.0008202099737533
142
0.0
142
0.0
142
0.0
142
0.0
142
1.0
142
0.0
142
0.0
142
0.0
142
0.0
142
1.0
179
     0
144
0.0008202099737533
144
0.0
144
0.0
144
0.0
144
0.0
144
0.0008202099737533
144
0.0
144
0.0
144
0.0
144
0.0
144
1.0
144
0.0
144
0.0
144
0.0
144
0.0
144
1.0
147
0.0008202099737533
147
0.0
147
0.0
147
0.0
147
0.0
147
0.0008202099737533
147
0.0
147
0.0
147
0.0
147
0.0
147
1.0
147
0.0
147
0.0
147
0.0
147
0.0
147
1.0
  0
MATERIAL
  5
10005
102
{ACAD_XDICTIONARY
360
10006
102
}
102
{ACAD_REACTORS
330
10004
102
}
330
10004
100
AcDbMaterial
  1
ByLayer
 72
     0
 43
0.0008202099737533
 43
0.0
 43
0.0
 43
0.0
 43
0.0
 43
0.0008202099737533
 43
0.0
 43
0.0
 43
0.0
 43
0.0
 43
1.0
 43
0.0
 43
0.0
 43
0.0
 43
0.0
 43
1.0
 77
     0
 47
0.0008202099737533
 47
0.0
 47
0.0
 47
0.0
 47
0.0
 47
0.0008202099737533
 47
0.0
 47
0.0
 47
0.0
 47
0.0
 47
1.0
 47
0.0
 47
0.0
 47
0.0
 47
0.0
 47
1.0
171
     0
 49
0.0008202099737533
 49
0.0
 49
0.0
 49
0.0
 49
0.0
 49
0.0008202099737533
 49
0.0
 49
0.0
 49
0.0
 49
0.0
 49
1.0
 49
0.0
 49
0.0
 49
0.0
 49
0.0
 49
1.0
175
     0
142
0.0008202099737533
142
0.0
142
0.0
142
0.0
142
0.0
142
0.0008202099737533
142
0.0
142
0.0
142
0.0
142
0.0
142
1.0
142
0.0
142
0.0
142
0.0
142
0.0
142
1.0
179
     0
144
0.0008202099737533
144
0.0
144
0.0
144
0.0
144
0.0
144
0.0008202099737533
144
0.0
144
0.0
144
0.0
144
0.0
144
1.0
144
0.0
144
0.0
144
0.0
144
0.0
144
1.0
147
0.0008202099737533
147
0.0
147
0.0
147
0.0
147
0.0
147
0.0008202099737533
147
0.0
147
0.0
147
0.0
147
0.0
147
1.0
147
0.0
147
0.0
147
0.0
147
0.0
147
1.0
  0
MATERIAL
  5
10015
102
{ACAD_XDICTIONARY
360
10016
102
}
102
{ACAD_REACTORS
330
10004
102
}
330
10004
100
AcDbMaterial
  1
Global
 72
     0
 43
0.0008202099737533
 43
0.0
 43
0.0
 43
0.0
 43
0.0
 43
0.0008202099737533
 43
0.0
 43
0.0
 43
0.0
 43
0.0
 43
1.0
 43
0.0
 43
0.0
 43
0.0
 43
0.0
 43
1.0
 77
     0
 47
0.0008202099737533
 47
0.0
 47
0.0
 47
0.0
 47
0.0
 47
0.0008202099737533
 47
0.0
 47
0.0
 47
0.0
 47
0.0
 47
1.0
 47
0.0
 47
0.0
 47
0.0
 47
0.0
 47
1.0
171
     0
 49
0.0008202099737533
 49
0.0
 49
0.0
 49
0.0
 49
0.0
 49
0.0008202099737533
 49
0.0
 49
0.0
 49
0.0
 49
0.0
 49
1.0
 49
0.0
 49
0.0
 49
0.0
 49
0.0
 49
1.0
175
     0
142
0.0008202099737533
142
0.0
142
0.0
142
0.0
142
0.0
142
0.0008202099737533
142
0.0
142
0.0
142
0.0
142
0.0
142
1.0
142
0.0
142
0.0
142
0.0
142
0.0
142
1.0
179
     0
144
0.0008202099737533
144
0.0
144
0.0
144
0.0
144
0.0
144
0.0008202099737533
144
0.0
144
0.0
144
0.0
144
0.0
144
1.0
144
0.0
144
0.0
144
0.0
144
0.0
144
1.0
147
0.0008202099737533
147
0.0
147
0.0
147
0.0
147
0.0
147
0.0008202099737533
147
0.0
147
0.0
147
0.0
147
0.0
147
1.0
147
0.0
147
0.0
147
0.0
147
0.0
147
1.0
  0
MLEADERSTYLE
  5
1004E
102
{ACAD_REACTORS
330
1004D
102
}
330
1004D
100
AcDbMLeaderStyle
179
     2
170
     2
171
     1
172
     0
 90
        2
 40
0.0
 41
0.0
173
     1
 91
-1056964608
340
14
 92
       -2
290
     1
 42
0.09
291
     1
 43
0.36
  3
Standard
 44
0.18
300

342
11
174
     1
178
     6
175
     1
176
     0
 93
-1056964608
 45
0.18
292
     0
297
     0
 46
0.18
 94
-1056964608
 47
1.0
 49
1.0
140
1.0
293
     1
141
0.0
294
     1
177
     0
142
1.0
295
     0
296
     0
143
0.125
271
     0
272
     9
273
     9
298
     0
  0
MLINESTYLE
  5
1003A
102
{ACAD_REACTORS
330
17
102
}
330
17
100
AcDbMlineStyle
  2
STANDARD
 70
     0
  3

 62
   256
 51
90.0
 52
90.0
 71
     2
 49
0.5
 62
   256
  6
BYLAYER
 49
-0.5
 62
   256
  6
BYLAYER
  0
ACDBPLACEHOLDER
  5
10003
102
{ACAD_REACTORS
330
10002
102
}
330
10002
  0
SCALE
  5
1003C
102
{ACAD_REACTORS
330
1003B
102
}
330
1003B
100
AcDbScale
 70
     0
300
1:1
140
1.0
141
1.0
290
     1
  0
SCALE
  5
1003D
102
{ACAD_REACTORS
330
1003B
102
}
330
1003B
100
AcDbScale
 70
     0
300
1/128" = 1'-0"
140
0.0078125
141
12.0
290
     0
  0
SCALE
  5
1003E
102
{ACAD_REACTORS
330
1003B
102
}
330
1003B
100
AcDbScale
 70
     0
300
1/64" = 1'-0"
140
0.015625
141
12.0
290
     0
  0
SCALE
  5
1003F
102
{ACAD_REACTORS
330
1003B
102
}
330
1003B
100
AcDbScale
 70
     0
300
1/32" = 1'-0"
140
0.03125
141
12.0
290
     0
  0
SCALE
  5
10040
102
{ACAD_REACTORS
330
1003B
102
}
330
1003B
100
AcDbScale
 70
     0
300
1/16" = 1'-0"
140
0.0625
141
12.0
290
     0
  0
SCALE
  5
10041
102
{ACAD_REACTORS
330
1003B
102
}
330
1003B
100
AcDbScale
 70
     0
300
3/32" = 1'-0"
140
0.09375
141
12.0
290
     0
  0
SCALE
  5
10042
102
{ACAD_REACTORS
330
1003B
102
}
330
1003B
100
AcDbScale
 70
     0
300
1/8" = 1'-0"
140
0.125
141
12.0
290
     0
  0
SCALE
  5
10043
102
{ACAD_REACTORS
330
1003B
102
}
330
1003B
100
AcDbScale
 70
     0
300
3/16" = 1'-0"
140
0.1875
141
12.0
290
     0
  0
SCALE
  5
10044
102
{ACAD_REACTORS
330
1003B
102
}
330
1003B
100
AcDbScale
 70
     0
300
1/4" = 1'-0"
140
0.25
141
12.0
290
     0
  0
SCALE
  5
10045
102
{ACAD_REACTORS
330
1003B
102
}
330
1003B
100
AcDbScale
 70
     0
300
3/8" = 1'-0"
140
0.375
141
12.0
290
     0
  0
SCALE
  5
10046
102
{ACAD_REACTORS
330
1003B
102
}
330
1003B
100
AcDbScale
 70
     0
300
1/2" = 1'-0"
140
0.5
141
12.0
290
     0
  0
SCALE
  5
10047
102
{ACAD_REACTORS
330
1003B
102
}
330
1003B
100
AcDbScale
 70
     0
300
3/4" = 1'-0"
140
0.75
141
12.0
290
     0
  0
SCALE
  5
10048
102
{ACAD_REACTORS
330
1003B
102
}
330
1003B
100
AcDbScale
 70
     0
300
1" = 1'-0"
140
1.0
141
12.0
290
     0
  0
SCALE
  5
10049
102
{ACAD_REACTORS
330
1003B
102
}
330
1003B
100
AcDbScale
 70
     0
300
1-1/2" = 1'-0"
140
1.5
141
12.0
290
     0
  0
SCALE
  5
1004A
102
{ACAD_REACTORS
330
1003B
102
}
330
1003B
100
AcDbScale
 70
     0
300
3" = 1'-0"
140
3.0
141
12.0
290
     0
  0
SCALE
  5
1004B
102
{ACAD_REACTORS
330
1003B
102
}
330
1003B
100
AcDbScale
 70
     0
300
6" = 1'-0"
140
6.0
141
12.0
290
     0
  0
SCALE
  5
1004C
102
{ACAD_REACTORS
330
1003B
102
}
330
1003B
100
AcDbScale
 70
     0
300
1'-0" = 1'-0"
140
12.0
141
12.0
290
     0
  0
ACDBSECTIONVIEWSTYLE
  5
10050
102
{ACAD_REACTORS
330
1004F
102
}
330
1004F
100
AcDbModelDocViewStyle
 70
     0
  3
Imperial24
290
     0
300
Imperial24
 90
        0
100
AcDbSectionViewStyle
 70
     0
 71
     0
 90
       78
 71
     1
340
11
 62
   256
 40
0.24
340
0
340
0
 62
   256
 40
0.24
300
I, O, Q, S, X, Z
 40
0.48
 90
        3
 40
0.18
 90
        1
 71
     2
340
0
 90
       25
 62
   256
340
0
 90
       50
 62
   256
 40
0.24
 40
0.0
 40
0.24
 71
     3
340
11
 62
   256
 40
0.24
 90
        1
 40
0.75
 90
        1
300
%<\AcVar ViewType \f "%tc1">% %<\AcVar ViewSectionStartId>%-%<\AcVar ViewSectionEndId>%\PSCALE %<\AcVar ViewScale \f "%sn">%
 71
     4
 62
   256
 62
   257
300
ANSI31
 40
1.0
 90
        0
290
     0
290
     0
 90
        6
 40
0.0
 40
1.570796326794896
 40
0.2617993877991494
 40
1.308996938995747
 40
-0.2617993877991494
 40
1.832595714594046
  0
TABLESTYLE
  5
10039
102
{ACAD_XDICTIONARY
360
10309
102
}
102
{ACAD_REACTORS
330
10038
102
}
330
10038
100
AcDbTableStyle
280
     0
  3
Standard
 70
     0
 71
     0
 40
0.06
 41
0.06
280
     0
281
     0
  7
STANDARD
140
0.18
170
     2
 62
     0
 63
     7
283
     0
 90
      512
 91
        0
  1

274
    -2
284
     1
 64
     0
275
    -2
285
     1
 65
     0
276
    -2
286
     1
 66
     0
277
    -2
287
     1
 67
     0
278
    -2
288
     1
 68
     0
279
    -2
289
     1
 69
     0
  7
STANDARD
140
0.25
170
     5
 62
     0
 63
     7
283
     0
 90
      512
 91
        0
  1

274
    -2
284
     1
 64
     0
275
    -2
285
     1
 65
     0
276
    -2
286
     1
 66
     0
277
    -2
287
     1
 67
     0
278
    -2
288
     1
 68
     0
279
    -2
289
     1
 69
     0
  7
STANDARD
140
0.18
170
     5
 62
     0
 63
     7
283
     0
 90
      512
 91
        0
  1

274
    -2
284
     1
 64
     0
275
    -2
285
     1
 65
     0
276
    -2
286
     1
 66
     0
277
    -2
287
     1
 67
     0
278
    -2
288
     1
 68
     0
279
    -2
289
     1
 69
     0
  0
VISUALSTYLE
  5
10023
102
{ACAD_REACTORS
330
1001D
102
}
330
1001D
100
AcDbVisualStyle
  2
2dWireframe
 70
     4
177
     3
291
     0
 70
    58
 90
        0
176
     1
 90
        2
176
     1
 90
        0
176
     1
 90
        0
176
     1
 40
0.6
176
     1
 40
30.0
176
     1
 62
     7
420
 16777215
176
     1
 90
        1
176
     1
 90
        4
176
     1
 62
     7
176
     1
 62
   257
176
     1
 90
        1
176
     1
 90
        1
176
     1
 40
1.0
176
     1
 90
        0
176
     1
 62
   257
176
     1
 40
1.0
176
     1
 90
        1
176
     1
 90
        6
176
     1
 90
        2
176
     1
 62
     7
176
     1
 90
        5
176
     1
 90
        0
176
     1
 90
        0
176
     1
290
     0
176
     1
 90
        1
176
     1
 40
0.0
176
     1
 90
        0
176
     1
290
     1
176
     1
290
     1
176
     1
290
     0
176
     1
290
     0
176
     1
290
     0
176
     1
290
     0
176
     1
290
     0
176
     1
290
     0
176
     1
290
     0
176
     1
 90
       50
176
     1
 40
0.0
176
     1
 40
1.0
176
     1
 90
        0
176
     1
 62
    18
420
        0
176
     1
 90
       50
176
     1
 90
        3
176
     1
 62
     5
420
      255
176
     1
290
     0
176
     1
 90
       50
176
     1
 90
       50
176
     1
 90
       50
176
     1
290
     0
176
     1
 90
       50
176
     1
 62
   256
176
     0
 40
1.0
176
     0
 90
        2
176
     1
  1
strokes_ogs.tif
176
     1
290
     0
176
     1
 40
1.0
176
     1
 40
1.0
176
     1
  0
VISUALSTYLE
  5
10022
102
{ACAD_REACTORS
330
1001D
102
}
330
1001D
100
AcDbVisualStyle
  2
Basic
 70
     7
177
     3
291
     1
 70
    58
 90
        1
176
     1
 90
        0
176
     1
 90
        1
176
     1
 90
        0
176
     1
 40
0.6
176
     1
 40
30.0
176
     1
 62
     7
420
 16777215
176
     1
 90
        0
176
     1
 90
        4
176
     1
 62
     7
176
     1
 62
   257
176
     1
 90
        1
176
     1
 90
        1
176
     1
 40
1.0
176
     1
 90
        8
176
     1
 62
     7
176
     1
 40
1.0
176
     1
 90
        1
176
     1
 90
        6
176
     1
 90
        2
176
     1
 62
     7
176
     1
 90
        5
176
     1
 90
        0
176
     1
 90
        0
176
     1
290
     0
176
     1
 90
        1
176
     1
 40
0.0
176
     1
 90
        0
176
     1
290
     0
176
     1
290
     1
176
     1
290
     1
176
     1
290
     0
176
     1
290
     0
176
     1
290
     0
176
     1
290
     0
176
     1
290
     0
176
     1
290
     0
176
     1
 90
       50
176
     1
 40
0.0
176
     1
 40
1.0
176
     1
 90
        0
176
     1
 62
    18
420
        0
176
     1
 90
       50
176
     1
 90
        3
176
     1
 62
     5
420
      255
176
     1
290
     0
176
     1
 90
       50
176
     1
 90
       50
176
     1
 90
       50
176
     1
290
     0
176
     1
 90
       50
176
     1
 62
   256
176
     0
 40
1.0
176
     0
 90
        2
176
     1
  1
strokes_ogs.tif
176
     1
290
     0
176
     1
 40
1.0
176
     1
 40
1.0
176
     1
  0
VISUALSTYLE
  5
10029
102
{ACAD_REACTORS
330
1001D
102
}
330
1001D
100
AcDbVisualStyle
  2
Brighten
 70
    12
177
     3
291
     1
 70
    58
 90
        2
176
     1
 90
        2
176
     1
 90
        0
176
     1
 90
        0
176
     1
 40
0.6
176
     1
 40
30.0
176
     1
 62
     7
420
 16777215
176
     1
 90
        1
176
     1
 90
        4
176
     1
 62
     7
176
     1
 62
   257
176
     1
 90
        1
176
     1
 90
        1
176
     1
 40
1.0
176
     1
 90
        8
176
     1
 62
     7
176
     1
 40
1.0
176
     1
 90
        1
176
     1
 90
        6
176
     1
 90
        2
176
     1
 62
     7
176
     1
 90
        5
176
     1
 90
        0
176
     1
 90
        0
176
     1
290
     0
176
     1
 90
        1
176
     1
 40
50.0
176
     1
 90
        0
176
     1
290
     0
176
     1
290
     1
176
     1
290
     1
176
     1
290
     0
176
     1
290
     0
176
     1
290
     0
176
     1
290
     0
176
     1
290
     0
176
     1
290
     0
176
     1
 90
       50
176
     1
 40
0.0
176
     1
 40
1.0
176
     1
 90
        0
176
     1
 62
    18
420
        0
176
     1
 90
       50
176
     1
 90
        3
176
     1
 62
     5
420
      255
176
     1
290
     0
176
     1
 90
       50
176
     1
 90
       50
176
     1
 90
       50
176
     1
290
     0
176
     1
 90
       50
176
     1
 62
   256
176
     0
 40
1.0
176
     0
 90
        2
176
     1
  1
strokes_ogs.tif
176
     1
290
     0
176
     1
 40
1.0
176
     1
 40
1.0
176
     1
  0
VISUALSTYLE
  5
1002D
102
{ACAD_REACTORS
330
1001D
102
}
330
1001D
100
AcDbVisualStyle
  2
ColorChange
 70
    16
177
     3
291
     1
 70
    58
 90
        2
176
     1
 90
        2
176
     1
 90
        3
176
     1
 90
        0
176
     1
 40
0.6
176
     1
 40
30.0
176
     1
 62
     8
420
  8421504
176
     1
 90
        1
176
     1
 90
        4
176
     1
 62
     7
176
     1
 62
   257
176
     1
 90
        1
176
     1
 90
        1
176
     1
 40
1.0
176
     1
 90
        8
176
     1
 62
     8
420
  8421504
176
     1
 40
1.0
176
     1
 90
        1
176
     1
 90
        6
176
     1
 90
        2
176
     1
 62
     7
176
     1
 90
        5
176
     1
 90
        0
176
     1
 90
        0
176
     1
290
     0
176
     1
 90
        1
176
     1
 40
0.0
176
     1
 90
        0
176
     1
290
     0
176
     1
290
     1
176
     1
290
     1
176
     1
290
     0
176
     1
290
     0
176
     1
290
     0
176
     1
290
     0
176
     1
290
     0
176
     1
290
     0
176
     1
 90
       50
176
     1
 40
0.0
176
     1
 40
1.0
176
     1
 90
        0
176
     1
 62
    18
420
        0
176
     1
 90
       50
176
     1
 90
        3
176
     1
 62
     5
420
      255
176
     1
290
     0
176
     1
 90
       50
176
     1
 90
       50
176
     1
 90
       50
176
     1
290
     0
176
     1
 90
       50
176
     1
 62
   256
176
     0
 40
1.0
176
     0
 90
        2
176
     1
  1
strokes_ogs.tif
176
     1
290
     0
176
     1
 40
1.0
176
     1
 40
1.0
176
     1
  0
VISUALSTYLE
  5
10026
102
{ACAD_REACTORS
330
1001D
102
}
330
1001D
100
AcDbVisualStyle
  2
Conceptual
 70
     9
177
     3
291
     0
 70
    58
 90
        3
176
     1
 90
        2
176
     1
 90
        0
176
     1
 90
        0
176
     1
 40
0.6
176
     1
 40
30.0
176
     1
 62
     7
420
 16777215
176
     1
 90
        2
176
     1
 90
        2
176
     1
 62
     7
176
     1
 62
   257
176
     1
 90
        1
176
     1
 90
        1
176
     1
 40
179.0
176
     1
 90
        8
176
     1
 62
     7
176
     1
 40
1.0
176
     1
 90
        1
176
     1
 90
        6
176
     1
 90
        2
176
     1
 62
     7
176
     1
 90
        3
176
     1
 90
        0
176
     1
 90
        0
176
     1
290
     0
176
     1
 90
        1
176
     1
 40
0.0
176
     1
 90
        0
176
     1
290
     0
176
     1
290
     1
176
     1
290
     1
176
     1
290
     0
176
     1
290
     0
176
     1
290
     0
176
     1
290
     0
176
     1
290
     0
176
     1
290
     0
176
     1
 90
       50
176
     1
 40
0.0
176
     1
 40
1.0
176
     1
 90
        0
176
     1
 62
    18
420
        0
176
     1
 90
       50
176
     1
 90
        3
176
     1
 62
     5
420
      255
176
     1
290
     0
176
     1
 90
       50
176
     1
 90
       50
176
     1
 90
       50
176
     1
290
     0
176
     1
 90
       50
176
     1
 62
   256
176
     0
 40
1.0
176
     0
 90
        2
176
     1
  1
strokes_ogs.tif
176
     1
290
     0
176
     1
 40
1.0
176
     1
 40
1.0
176
     1
  0
VISUALSTYLE
  5
10028
102
{ACAD_REACTORS
330
1001D
102
}
330
1001D
100
AcDbVisualStyle
  2
Dim
 70
    11
177
     3
291
     1
 70
    58
 90
        2
176
     1
 90
        2
176
     1
 90
        0
176
     1
 90
        0
176
     1
 40
0.6
176
     1
 40
30.0
176
     1
 62
     7
420
 16777215
176
     1
 90
        1
176
     1
 90
        4
176
     1
 62
     7
176
     1
 62
   257
176
     1
 90
        1
176
     1
 90
        1
176
     1
 40
1.0
176
     1
 90
        8
176
     1
 62
     7
176
     1
 40
1.0
176
     1
 90
        1
176
     1
 90
        6
176
     1
 90
        2
176
     1
 62
     7
176
     1
 90
        5
176
     1
 90
        0
176
     1
 90
        0
176
     1
290
     0
176
     1
 90
        1
176
     1
 40
-50.0
176
     1
 90
        0
176
     1
290
     0
176
     1
290
     1
176
     1
290
     1
176
     1
290
     0
176
     1
290
     0
176
     1
290
     0
176
     1
290
     0
176
     1
290
     0
176
     1
290
     0
176
     1
 90
       50
176
     1
 40
0.0
176
     1
 40
1.0
176
     1
 90
        0
176
     1
 62
    18
420
        0
176
     1
 90
       50
176
     1
 90
        3
176
     1
 62
     5
420
      255
176
     1
290
     0
176
     1
 90
       50
176
     1
 90
       50
176
     1
 90
       50
176
     1
290
     0
176
     1
 90
       50
176
     1
 62
   256
176
     0
 40
1.0
176
     0
 90
        2
176
     1
  1
strokes_ogs.tif
176
     1
290
     0
176
     1
 40
1.0
176
     1
 40
1.0
176
     1
  0
VISUALSTYLE
  5
10035
102
{ACAD_REACTORS
330
1001D
102
}
330
1001D
100
AcDbVisualStyle
  2
EdgeColorOff
 70
    22
177
     3
291
     1
 70
    58
 90
        2
176
     0
 90
        2
176
     0
 90
        0
176
     0
 90
        0
176
     0
 40
0.6
176
     0
 40
30.0
176
     0
 62
     7
420
 16777215
176
     0
 90
        1
176
     0
 90
        4
176
     0
 62
     7
176
     0
 62
   257
176
     0
 90
        1
176
     0
 90
        1
176
     0
 40
1.0
176
     0
 90
        8
176
     2
 62
     7
176
     0
 40
1.0
176
     0
 90
        1
176
     0
 90
        6
176
     0
 90
        2
176
     0
 62
     7
176
     0
 90
        5
176
     0
 90
        0
176
     0
 90
        0
176
     0
290
     0
176
     0
 90
        1
176
     0
 40
0.0
176
     0
 90
        0
176
     0
290
     0
176
     1
290
     1
176
     1
290
     1
176
     1
290
     0
176
     1
290
     0
176
     1
290
     0
176
     1
290
     0
176
     1
290
     0
176
     1
290
     0
176
     1
 90
       50
176
     0
 40
0.0
176
     0
 40
1.0
176
     0
 90
        0
176
     0
 62
    18
420
        0
176
     0
 90
       50
176
     0
 90
        3
176
     0
 62
     5
420
      255
176
     0
290
     0
176
     1
 90
       50
176
     0
 90
       50
176
     0
 90
       50
176
     0
290
     0
176
     1
 90
       50
176
     0
 62
   256
176
     0
 40
1.0
176
     0
 90
        2
176
     0
  1
strokes_ogs.tif
176
     0
290
     0
176
     1
 40
1.0
176
     0
 40
1.0
176
     0
  0
VISUALSTYLE
  5
1002C
102
{ACAD_REACTORS
330
1001D
102
}
330
1001D
100
AcDbVisualStyle
  2
Facepattern
 70
    15
177
     3
291
     1
 70
    58
 90
        2
176
     1
 90
        2
176
     1
 90
        0
176
     1
 90
        0
176
     1
 40
0.6
176
     1
 40
30.0
176
     1
 62
     7
420
 16777215
176
     1
 90
        1
176
     1
 90
        4
176
     1
 62
     7
176
     1
 62
   257
176
     1
 90
        1
176
     1
 90
        1
176
     1
 40
1.0
176
     1
 90
        8
176
     1
 62
     7
176
     1
 40
1.0
176
     1
 90
        1
176
     1
 90
        6
176
     1
 90
        2
176
     1
 62
     7
176
     1
 90
        5
176
     1
 90
        0
176
     1
 90
        0
176
     1
290
     0
176
     1
 90
        1
176
     1
 40
0.0
176
     1
 90
        0
176
     1
290
     0
176
     1
290
     1
176
     1
290
     1
176
     1
290
     0
176
     1
290
     0
176
     1
290
     0
176
     1
290
     0
176
     1
290
     0
176
     1
290
     0
176
     1
 90
       50
176
     1
 40
0.0
176
     1
 40
1.0
176
     1
 90
        0
176
     1
 62
    18
420
        0
176
     1
 90
       50
176
     1
 90
        3
176
     1
 62
     5
420
      255
176
     1
290
     0
176
     1
 90
       50
176
     1
 90
       50
176
     1
 90
       50
176
     1
290
     0
176
     1
 90
       50
176
     1
 62
   256
176
     0
 40
1.0
176
     0
 90
        2
176
     1
  1
strokes_ogs.tif
176
     1
290
     0
176
     1
 40
1.0
176
     1
 40
1.0
176
     1
  0
VISUALSTYLE
  5
1001E
102
{ACAD_REACTORS
330
1001D
102
}
330
1001D
100
AcDbVisualStyle
  2
Flat
 70
     0
177
     3
291
     1
 70
    58
 90
        2
176
     1
 90
        1
176
     1
 90
        1
176
     1
 90
        2
176
     1
 40
0.6
176
     1
 40
30.0
176
     1
 62
     7
420
 16777215
176
     1
 90
        0
176
     1
 90
        0
176
     1
 62
     7
176
     1
 62
   257
176
     1
 90
        1
176
     1
 90
        1
176
     1
 40
1.0
176
     1
 90
        8
176
     1
 62
     7
176
     1
 40
1.0
176
     1
 90
        1
176
     1
 90
        6
176
     1
 90
        2
176
     1
 62
     7
176
     1
 90
        5
176
     1
 90
        0
176
     1
 90
        0
176
     1
290
     0
176
     1
 90
       13
176
     1
 40
0.0
176
     1
 90
        0
176
     1
290
     0
176
     1
290
     1
176
     1
290
     1
176
     1
290
     0
176
     1
290
     0
176
     1
290
     0
176
     1
290
     0
176
     1
290
     0
176
     1
290
     0
176
     1
 90
       50
176
     1
 40
0.0
176
     1
 40
1.0
176
     1
 90
        0
176
     1
 62
    18
420
        0
176
     1
 90
       50
176
     1
 90
        3
176
     1
 62
     5
420
      255
176
     1
290
     0
176
     1
 90
       50
176
     1
 90
       50
176
     1
 90
       50
176
     1
290
     0
176
     1
 90
       50
176
     1
 62
   256
176
     0
 40
1.0
176
     0
 90
        2
176
     1
  1
strokes_ogs.tif
176
     1
290
     0
176
     1
 40
1.0
176
     1
 40
1.0
176
     1
  0
VISUALSTYLE
  5
1001F
102
{ACAD_REACTORS
330
1001D
102
}
330
1001D
100
AcDbVisualStyle
  2
FlatWithEdges
 70
     1
177
     3
291
     1
 70
    58
 90
        2
176
     1
 90
        1
176
     1
 90
        1
176
     1
 90
        2
176
     1
 40
0.6
176
     1
 40
30.0
176
     1
 62
     7
420
 16777215
176
     1
 90
        1
176
     1
 90
        0
176
     1
 62
     7
176
     1
 62
   257
176
     1
 90
        1
176
     1
 90
        1
176
     1
 40
1.0
176
     1
 90
        0
176
     1
 62
   257
176
     1
 40
1.0
176
     1
 90
        1
176
     1
 90
        6
176
     1
 90
        2
176
     1
 62
     7
176
     1
 90
        5
176
     1
 90
        0
176
     1
 90
        0
176
     1
290
     0
176
     1
 90
       13
176
     1
 40
0.0
176
     1
 90
        0
176
     1
290
     0
176
     1
290
     1
176
     1
290
     1
176
     1
290
     0
176
     1
290
     0
176
     1
290
     0
176
     1
290
     0
176
     1
290
     0
176
     1
290
     0
176
     1
 90
       50
176
     1
 40
0.0
176
     1
 40
1.0
176
     1
 90
        0
176
     1
 62
    18
420
        0
176
     1
 90
       50
176
     1
 90
        3
176
     1
 62
     5
420
      255
176
     1
290
     0
176
     1
 90
       50
176
     1
 90
       50
176
     1
 90
       50
176
     1
290
     0
176
     1
 90
       50
176
     1
 62
   256
176
     0
 40
1.0
176
     0
 90
        2
176
     1
  1
strokes_ogs.tif
176
     1
290
     0
176
     1
 40
1.0
176
     1
 40
1.0
176
     1
  0
VISUALSTYLE
  5
10020
102
{ACAD_REACTORS
330
1001D
102
}
330
1001D
100
AcDbVisualStyle
  2
Gouraud
 70
     2
177
     3
291
     1
 70
    58
 90
        2
176
     1
 90
        2
176
     1
 90
        1
176
     1
 90
        2
176
     1
 40
0.6
176
     1
 40
30.0
176
     1
 62
     7
420
 16777215
176
     1
 90
        0
176
     1
 90
        0
176
     1
 62
     7
176
     1
 62
   257
176
     1
 90
        1
176
     1
 90
        1
176
     1
 40
1.0
176
     1
 90
        0
176
     1
 62
     7
176
     1
 40
1.0
176
     1
 90
        1
176
     1
 90
        6
176
     1
 90
        2
176
     1
 62
     7
176
     1
 90
        5
176
     1
 90
        0
176
     1
 90
        0
176
     1
290
     0
176
     1
 90
       13
176
     1
 40
0.0
176
     1
 90
        0
176
     1
290
     0
176
     1
290
     1
176
     1
290
     1
176
     1
290
     0
176
     1
290
     0
176
     1
290
     0
176
     1
290
     0
176
     1
290
     0
176
     1
290
     0
176
     1
 90
       50
176
     1
 40
0.0
176
     1
 40
1.0
176
     1
 90
        0
176
     1
 62
    18
420
        0
176
     1
 90
       50
176
     1
 90
        3
176
     1
 62
     5
420
      255
176
     1
290
     0
176
     1
 90
       50
176
     1
 90
       50
176
     1
 90
       50
176
     1
290
     0
176
     1
 90
       50
176
     1
 62
   256
176
     0
 40
1.0
176
     0
 90
        2
176
     1
  1
strokes_ogs.tif
176
     1
290
     0
176
     1
 40
1.0
176
     1
 40
1.0
176
     1
  0
VISUALSTYLE
  5
10021
102
{ACAD_REACTORS
330
1001D
102
}
330
1001D
100
AcDbVisualStyle
  2
GouraudWithEdges
 70
     3
177
     3
291
     1
 70
    58
 90
        2
176
     1
 90
        2
176
     1
 90
        1
176
     1
 90
        2
176
     1
 40
0.6
176
     1
 40
30.0
176
     1
 62
     7
420
 16777215
176
     1
 90
        1
176
     1
 90
        0
176
     1
 62
     7
176
     1
 62
   257
176
     1
 90
        1
176
     1
 90
        1
176
     1
 40
1.0
176
     1
 90
        0
176
     1
 62
   257
176
     1
 40
1.0
176
     1
 90
        1
176
     1
 90
        6
176
     1
 90
        2
176
     1
 62
     7
176
     1
 90
        5
176
     1
 90
        0
176
     1
 90
        0
176
     1
290
     0
176
     1
 90
       13
176
     1
 40
0.0
176
     1
 90
        0
176
     1
290
     0
176
     1
290
     1
176
     1
290
     1
176
     1
290
     0
176
     1
290
     0
176
     1
290
     0
176
     1
290
     0
176
     1
290
     0
176
     1
290
     0
176
     1
 90
       50
176
     1
 40
0.0
176
     1
 40
1.0
176
     1
 90
        0
176
     1
 62
    18
420
        0
176
     1
 90
       50
176
     1
 90
        3
176
     1
 62
     5
420
      255
176
     1
290
     0
176
     1
 90
       50
176
     1
 90
       50
176
     1
 90
       50
176
     1
290
     0
176
     1
 90
       50
176
     1
 62
   256
176
     0
 40
1.0
176
     0
 90
        2
176
     1
  1
strokes_ogs.tif
176
     1
290
     0
176
     1
 40
1.0
176
     1
 40
1.0
176
     1
  0
VISUALSTYLE
  5
10025
102
{ACAD_REACTORS
330
1001D
102
}
330
1001D
100
AcDbVisualStyle
  2
Hidden
 70
     6
177
     3
291
     0
 70
    58
 90
        1
176
     1
 90
        2
176
     1
 90
        2
176
     1
 90
        0
176
     1
 40
0.6
176
     1
 40
30.0
176
     1
 62
     7
420
 16777215
176
     1
 90
        2
176
     1
 90
        2
176
     1
 62
     7
176
     1
 62
   257
176
     1
 90
        2
176
     1
 90
        1
176
     1
 40
40.0
176
     1
 90
        0
176
     1
 62
   257
176
     1
 40
1.0
176
     1
 90
        1
176
     1
 90
        6
176
     1
 90
        2
176
     1
 62
     7
176
     1
 90
        3
176
     1
 90
        0
176
     1
 90
        0
176
     1
290
     0
176
     1
 90
        1
176
     1
 40
0.0
176
     1
 90
        0
176
     1
290
     0
176
     1
290
     1
176
     1
290
     1
176
     1
290
     0
176
     1
290
     0
176
     1
290
     0
176
     1
290
     0
176
     1
290
     0
176
     1
290
     0
176
     1
 90
       50
176
     1
 40
0.0
176
     1
 40
1.0
176
     1
 90
        0
176
     1
 62
    18
420
        0
176
     1
 90
       50
176
     1
 90
        3
176
     1
 62
     5
420
      255
176
     1
290
     0
176
     1
 90
       50
176
     1
 90
       50
176
     1
 90
       50
176
     1
290
     0
176
     1
 90
       50
176
     1
 62
   256
176
     0
 40
1.0
176
     0
 90
        2
176
     1
  1
strokes_ogs.tif
176
     1
290
     0
176
     1
 40
1.0
176
     1
 40
1.0
176
     1
  0
VISUALSTYLE
  5
10033
102
{ACAD_REACTORS
330
1001D
102
}
330
1001D
100
AcDbVisualStyle
  2
JitterOff
 70
    20
177
     3
291
     1
 70
    58
 90
        2
176
     0
 90
        2
176
     0
 90
        0
176
     0
 90
        0
176
     0
 40
0.6
176
     0
 40
30.0
176
     0
 62
     7
420
 16777215
176
     0
 90
        1
176
     0
 90
        4
176
     0
 62
     7
176
     0
 62
   257
176
     0
 90
        1
176
     0
 90
        1
176
     0
 40
1.0
176
     0
 90
       10
176
     2
 62
     7
176
     0
 40
1.0
176
     0
 90
        1
176
     0
 90
        6
176
     0
 90
        2
176
     0
 62
     7
176
     0
 90
        5
176
     0
 90
        0
176
     0
 90
        0
176
     0
290
     0
176
     0
 90
        1
176
     0
 40
0.0
176
     0
 90
        0
176
     0
290
     0
176
     1
290
     1
176
     1
290
     1
176
     1
290
     0
176
     1
290
     0
176
     1
290
     0
176
     1
290
     0
176
     1
290
     0
176
     1
290
     0
176
     1
 90
       50
176
     0
 40
0.0
176
     0
 40
1.0
176
     0
 90
        0
176
     0
 62
    18
420
        0
176
     0
 90
       50
176
     0
 90
        3
176
     0
 62
     5
420
      255
176
     0
290
     0
176
     1
 90
       50
176
     0
 90
       50
176
     0
 90
       50
176
     0
290
     0
176
     1
 90
       50
176
     0
 62
   256
176
     0
 40
1.0
176
     0
 90
        2
176
     0
  1
strokes_ogs.tif
176
     0
290
     0
176
     1
 40
1.0
176
     0
 40
1.0
176
     0
  0
VISUALSTYLE
  5
1002B
102
{ACAD_REACTORS
330
1001D
102
}
330
1001D
100
AcDbVisualStyle
  2
Linepattern
 70
    14
177
     3
291
     1
 70
    58
 90
        2
176
     1
 90
        2
176
     1
 90
        0
176
     1
 90
        0
176
     1
 40
0.6
176
     1
 40
30.0
176
     1
 62
     7
420
 16777215
176
     1
 90
        1
176
     1
 90
        4
176
     1
 62
     7
176
     1
 62
   257
176
     1
 90
        7
176
     1
 90
        7
176
     1
 40
1.0
176
     1
 90
        8
176
     1
 62
     7
176
     1
 40
1.0
176
     1
 90
        1
176
     1
 90
        6
176
     1
 90
        2
176
     1
 62
     7
176
     1
 90
        5
176
     1
 90
        0
176
     1
 90
        0
176
     1
290
     0
176
     1
 90
        1
176
     1
 40
0.0
176
     1
 90
        0
176
     1
290
     0
176
     1
290
     1
176
     1
290
     1
176
     1
290
     0
176
     1
290
     0
176
     1
290
     0
176
     1
290
     0
176
     1
290
     0
176
     1
290
     0
176
     1
 90
       50
176
     1
 40
0.0
176
     1
 40
1.0
176
     1
 90
        0
176
     1
 62
    18
420
        0
176
     1
 90
       50
176
     1
 90
        3
176
     1
 62
     5
420
      255
176
     1
290
     0
176
     1
 90
       50
176
     1
 90
       50
176
     1
 90
       50
176
     1
290
     0
176
     1
 90
       50
176
     1
 62
   256
176
     0
 40
1.0
176
     0
 90
        2
176
     1
  1
strokes_ogs.tif
176
     1
290
     0
176
     1
 40
1.0
176
     1
 40
1.0
176
     1
  0
VISUALSTYLE
  5
10034
102
{ACAD_REACTORS
330
1001D
102
}
330
1001D
100
AcDbVisualStyle
  2
OverhangOff
 70
    21
177
     3
291
     1
 70
    58
 90
        2
176
     0
 90
        2
176
     0
 90
        0
176
     0
 90
        0
176
     0
 40
0.6
176
     0
 40
30.0
176
     0
 62
     7
420
 16777215
176
     0
 90
        1
176
     0
 90
        4
176
     0
 62
     7
176
     0
 62
   257
176
     0
 90
        1
176
     0
 90
        1
176
     0
 40
1.0
176
     0
 90
        9
176
     2
 62
     7
176
     0
 40
1.0
176
     0
 90
        1
176
     0
 90
        6
176
     0
 90
        2
176
     0
 62
     7
176
     0
 90
        5
176
     0
 90
        0
176
     0
 90
        0
176
     0
290
     0
176
     0
 90
        1
176
     0
 40
0.0
176
     0
 90
        0
176
     0
290
     0
176
     1
290
     1
176
     1
290
     1
176
     1
290
     0
176
     1
290
     0
176
     1
290
     0
176
     1
290
     0
176
     1
290
     0
176
     1
290
     0
176
     1
 90
       50
176
     0
 40
0.0
176
     0
 40
1.0
176
     0
 90
        0
176
     0
 62
    18
420
        0
176
     0
 90
       50
176
     0
 90
        3
176
     0
 62
     5
420
      255
176
     0
290
     0
176
     1
 90
       50
176
     0
 90
       50
176
     0
 90
       50
176
     0
290
     0
176
     1
 90
       50
176
     0
 62
   256
176
     0
 40
1.0
176
     0
 90
        2
176
     0
  1
strokes_ogs.tif
176
     0
290
     0
176
     1
 40
1.0
176
     0
 40
1.0
176
     0
  0
VISUALSTYLE
  5
10027
102
{ACAD_REACTORS
330
1001D
102
}
330
1001D
100
AcDbVisualStyle
  2
Realistic
 70
     8
177
     3
291
     0
 70
    58
 90
        2
176
     1
 90
        3
176
     1
 90
        0
176
     1
 90
        2
176
     1
 40
0.6
176
     1
 40
30.0
176
     1
 62
     7
420
 16777215
176
     1
 90
        0
176
     1
 90
        0
176
     1
 62
     7
176
     1
 62
   257
176
     1
 90
        1
176
     1
 90
        1
176
     1
 40
1.0
176
     1
 90
        8
176
     1
 62
   257
176
     1
 40
1.0
176
     1
 90
        1
176
     1
 90
        6
176
     1
 90
        2
176
     1
 62
     7
176
     1
 90
        3
176
     1
 90
        0
176
     1
 90
        0
176
     1
290
     0
176
     1
 90
       13
176
     1
 40
0.0
176
     1
 90
        0
176
     1
290
     0
176
     1
290
     1
176
     1
290
     1
176
     1
290
     0
176
     1
290
     0
176
     1
290
     0
176
     1
290
     0
176
     1
290
     0
176
     1
290
     0
176
     1
 90
       50
176
     1
 40
0.0
176
     1
 40
1.0
176
     1
 90
        0
176
     1
 62
    18
420
        0
176
     1
 90
       50
176
     1
 90
        3
176
     1
 62
     5
420
      255
176
     1
290
     0
176
     1
 90
       50
176
     1
 90
       50
176
     1
 90
       50
176
     1
290
     0
176
     1
 90
       50
176
     1
 62
   256
176
     0
 40
1.0
176
     0
 90
        2
176
     1
  1
strokes_ogs.tif
176
     1
290
     0
176
     1
 40
1.0
176
     1
 40
1.0
176
     1
  0
VISUALSTYLE
  5
10032
102
{ACAD_REACTORS
330
1001D
102
}
330
1001D
100
AcDbVisualStyle
  2
Shaded
 70
    27
177
     3
291
     0
 70
    58
 90
        2
176
     1
 90
        2
176
     1
 90
        1
176
     1
 90
        2
176
     1
 40
0.6
176
     1
 40
30.0
176
     1
 62
     7
420
 16777215
176
     1
 90
        0
176
     1
 90
        4
176
     1
 62
     7
176
     1
 62
   257
176
     1
 90
        1
176
     1
 90
        1
176
     1
 40
1.0
176
     1
 90
        8
176
     1
 62
   257
176
     1
 40
1.0
176
     1
 90
        1
176
     1
 90
        6
176
     1
 90
        2
176
     1
 62
     8
420
  7895160
176
     1
 90
        3
176
     1
 90
        0
176
     1
 90
        0
176
     1
290
     0
176
     1
 90
        5
176
     1
 40
0.0
176
     1
 90
        0
176
     1
290
     0
176
     1
290
     1
176
     1
290
     1
176
     1
290
     0
176
     1
290
     0
176
     1
290
     0
176
     1
290
     0
176
     1
290
     0
176
     1
290
     0
176
     1
 90
       50
176
     1
 40
0.0
176
     1
 40
1.0
176
     1
 90
        0
176
     1
 62
    18
420
        0
176
     1
 90
       50
176
     1
 90
        3
176
     1
 62
     5
420
      255
176
     1
290
     0
176
     1
 90
       50
176
     1
 90
       50
176
     1
 90
       50
176
     1
290
     0
176
     1
 90
       50
176
     1
 62
   256
176
     0
 40
1.0
176
     0
 90
        2
176
     1
  1
strokes_ogs.tif
176
     1
290
     0
176
     1
 40
1.0
176
     1
 40
1.0
176
     1
  0
VISUALSTYLE
  5
10031
102
{ACAD_REACTORS
330
1001D
102
}
330
1001D
100
AcDbVisualStyle
  2
Shaded with edges
 70
    26
177
     3
291
     0
 70
    58
 90
        2
176
     1
 90
        2
176
     1
 90
        1
176
     1
 90
        2
176
     1
 40
0.6
176
     1
 40
30.0
176
     1
 62
     7
420
 16777215
176
     1
 90
        1
176
     1
 90
        2
176
     1
 62
     7
176
     1
 62
   257
176
     1
 90
        2
176
     1
 90
        1
176
     1
 40
1.0
176
     1
 90
        8
176
     1
 62
   257
176
     1
 40
1.0
176
     1
 90
        1
176
     1
 90
        6
176
     1
 90
        2
176
     1
 62
     7
176
     1
 90
        3
176
     1
 90
        0
176
     1
 90
        0
176
     1
290
     0
176
     1
 90
        5
176
     1
 40
0.0
176
     1
 90
        0
176
     1
290
     0
176
     1
290
     1
176
     1
290
     1
176
     1
290
     0
176
     1
290
     0
176
     1
290
     0
176
     1
290
     0
176
     1
290
     0
176
     1
290
     0
176
     1
 90
       50
176
     1
 40
0.0
176
     1
 40
1.0
176
     1
 90
        0
176
     1
 62
    18
420
        0
176
     1
 90
       50
176
     1
 90
        3
176
     1
 62
     5
420
      255
176
     1
290
     0
176
     1
 90
       50
176
     1
 90
       50
176
     1
 90
       50
176
     1
290
     0
176
     1
 90
       50
176
     1
 62
   256
176
     0
 40
1.0
176
     0
 90
        2
176
     1
  1
strokes_ogs.tif
176
     1
290
     0
176
     1
 40
1.0
176
     1
 40
1.0
176
     1
  0
VISUALSTYLE
  5
1002E
102
{ACAD_REACTORS
330
1001D
102
}
330
1001D
100
AcDbVisualStyle
  2
Shades of Gray
 70
    23
177
     3
291
     0
 70
    58
 90
        2
176
     1
 90
        2
176
     1
 90
        3
176
     1
 90
        0
176
     1
 40
0.6
176
     1
 40
30.0
176
     1
 62
     7
420
 16777215
176
     1
 90
        2
176
     1
 90
        2
176
     1
 62
     7
176
     1
 62
     7
176
     1
 90
        1
176
     1
 90
        1
176
     1
 40
40.0
176
     1
 90
        8
176
     1
 62
     7
176
     1
 40
1.0
176
     1
 90
        1
176
     1
 90
        6
176
     1
 90
        2
176
     1
 62
     7
176
     1
 90
        3
176
     1
 90
        0
176
     1
 90
        0
176
     1
290
     0
176
     1
 90
        1
176
     1
 40
0.0
176
     1
 90
        0
176
     1
290
     0
176
     1
290
     1
176
     1
290
     1
176
     1
290
     0
176
     1
290
     0
176
     1
290
     0
176
     1
290
     0
176
     1
290
     0
176
     1
290
     0
176
     1
 90
       50
176
     1
 40
0.0
176
     1
 40
1.0
176
     1
 90
        0
176
     1
 62
    18
420
        0
176
     1
 90
       50
176
     1
 90
        3
176
     1
 62
     5
420
      255
176
     1
290
     0
176
     1
 90
       50
176
     1
 90
       50
176
     1
 90
       50
176
     1
290
     0
176
     1
 90
       50
176
     1
 62
   256
176
     0
 40
1.0
176
     0
 90
        2
176
     1
  1
strokes_ogs.tif
176
     1
290
     0
176
     1
 40
1.0
176
     1
 40
1.0
176
     1
  0
VISUALSTYLE
  5
1002F
102
{ACAD_REACTORS
330
1001D
102
}
330
1001D
100
AcDbVisualStyle
  2
Sketchy
 70
    24
177
     3
291
     0
 70
    58
 90
        1
176
     1
 90
        2
176
     1
 90
        2
176
     1
 90
        0
176
     1
 40
0.6
176
     1
 40
30.0
176
     1
 62
     7
420
 16777215
176
     1
 90
        2
176
     1
 90
        2
176
     1
 62
     7
176
     1
 62
     7
176
     1
 90
        1
176
     1
 90
        1
176
     1
 40
40.0
176
     1
 90
       11
176
     1
 62
     7
176
     1
 40
1.0
176
     1
 90
        1
176
     1
 90
        6
176
     1
 90
        2
176
     1
 62
     7
176
     1
 90
        6
176
     1
 90
        0
176
     1
 90
        0
176
     1
290
     0
176
     1
 90
        1
176
     1
 40
0.0
176
     1
 90
        0
176
     1
290
     0
176
     1
290
     1
176
     1
290
     1
176
     1
290
     0
176
     1
290
     0
176
     1
290
     0
176
     1
290
     0
176
     1
290
     0
176
     1
290
     0
176
     1
 90
       50
176
     1
 40
0.0
176
     1
 40
1.0
176
     1
 90
        0
176
     1
 62
    18
420
        0
176
     1
 90
       50
176
     1
 90
        3
176
     1
 62
     5
420
      255
176
     1
290
     0
176
     1
 90
       50
176
     1
 90
       50
176
     1
 90
       50
176
     1
290
     0
176
     1
 90
       50
176
     1
 62
   256
176
     0
 40
1.0
176
     0
 90
        2
176
     1
  1
strokes_ogs.tif
176
     1
290
     0
176
     1
 40
1.0
176
     1
 40
1.0
176
     1
  0
VISUALSTYLE
  5
1002A
102
{ACAD_REACTORS
330
1001D
102
}
330
1001D
100
AcDbVisualStyle
  2
Thicken
 70
    13
177
     3
291
     1
 70
    58
 90
        2
176
     1
 90
        2
176
     1
 90
        0
176
     1
 90
        0
176
     1
 40
0.6
176
     1
 40
30.0
176
     1
 62
     7
420
 16777215
176
     1
 90
        1
176
     1
 90
        4
176
     1
 62
     7
176
     1
 62
   257
176
     1
 90
        1
176
     1
 90
        1
176
     1
 40
1.0
176
     1
 90
       12
176
     1
 62
     7
176
     1
 40
1.0
176
     1
 90
        1
176
     1
 90
        6
176
     1
 90
        2
176
     1
 62
     7
176
     1
 90
        5
176
     1
 90
        0
176
     1
 90
        0
176
     1
290
     0
176
     1
 90
        1
176
     1
 40
0.0
176
     1
 90
        0
176
     1
290
     0
176
     1
290
     1
176
     1
290
     1
176
     1
290
     0
176
     1
290
     0
176
     1
290
     0
176
     1
290
     0
176
     1
290
     0
176
     1
290
     0
176
     1
 90
       50
176
     1
 40
0.0
176
     1
 40
1.0
176
     1
 90
        0
176
     1
 62
    18
420
        0
176
     1
 90
       50
176
     1
 90
        3
176
     1
 62
     5
420
      255
176
     1
290
     0
176
     1
 90
       50
176
     1
 90
       50
176
     1
 90
       50
176
     1
290
     0
176
     1
 90
       50
176
     1
 62
   256
176
     0
 40
1.0
176
     0
 90
        2
176
     1
  1
strokes_ogs.tif
176
     1
290
     0
176
     1
 40
1.0
176
     1
 40
1.0
176
     1
  0
VISUALSTYLE
  5
10024
102
{ACAD_REACTORS
330
1001D
102
}
330
1001D
100
AcDbVisualStyle
  2
Wireframe
 70
     5
177
     3
291
     0
 70
    58
 90
        0
176
     1
 90
        2
176
     1
 90
        0
176
     1
 90
        0
176
     1
 40
0.6
176
     1
 40
30.0
176
     1
 62
     7
420
 16777215
176
     1
 90
        1
176
     1
 90
        4
176
     1
 62
     7
176
     1
 62
   257
176
     1
 90
        1
176
     1
 90
        1
176
     1
 40
1.0
176
     1
 90
        0
176
     1
 62
   257
176
     1
 40
1.0
176
     1
 90
        1
176
     1
 90
        6
176
     1
 90
        2
176
     1
 62
     7
176
     1
 90
        3
176
     1
 90
        0
176
     1
 90
        0
176
     1
290
     0
176
     1
 90
        1
176
     1
 40
0.0
176
     1
 90
        0
176
     1
290
     0
176
     1
290
     1
176
     1
290
     1
176
     1
290
     0
176
     1
290
     0
176
     1
290
     0
176
     1
290
     0
176
     1
290
     0
176
     1
290
     0
176
     1
 90
       50
176
     1
 40
0.0
176
     1
 40
1.0
176
     1
 90
        0
176
     1
 62
    18
420
        0
176
     1
 90
       50
176
     1
 90
        3
176
     1
 62
     5
420
      255
176
     1
290
     0
176
     1
 90
       50
176
     1
 90
       50
176
     1
 90
       50
176
     1
290
     0
176
     1
 90
       50
176
     1
 62
   256
176
     0
 40
1.0
176
     0
 90
        2
176
     1
  1
strokes_ogs.tif
176
     1
290
     0
176
     1
 40
1.0
176
     1
 40
1.0
176
     1
  0
VISUALSTYLE
  5
10030
102
{ACAD_REACTORS
330
1001D
102
}
330
1001D
100
AcDbVisualStyle
  2
X-Ray
 70
    25
177
     3
291
     0
 70
    58
 90
        2
176
     1
 90
        2
176
     1
 90
        1
176
     1
 90
        1
176
     1
 40
0.5
176
     1
 40
30.0
176
     1
 62
     7
420
 16777215
176
     1
 90
        1
176
     1
 90
        0
176
     1
 62
     7
176
     1
 62
   257
176
     1
 90
        1
176
     1
 90
        1
176
     1
 40
1.0
176
     1
 90
        8
176
     1
 62
     7
176
     1
 40
1.0
176
     1
 90
        1
176
     1
 90
        6
176
     1
 90
        2
176
     1
 62
     7
176
     1
 90
        3
176
     1
 90
        0
176
     1
 90
        0
176
     1
290
     0
176
     1
 90
       13
176
     1
 40
0.0
176
     1
 90
        0
176
     1
290
     0
176
     1
290
     1
176
     1
290
     1
176
     1
290
     0
176
     1
290
     0
176
     1
290
     0
176
     1
290
     0
176
     1
290
     0
176
     1
290
     0
176
     1
 90
       50
176
     1
 40
0.0
176
     1
 40
1.0
176
     1
 90
        0
176
     1
 62
    18
420
        0
176
     1
 90
       50
176
     1
 90
        3
176
     1
 62
     5
420
      255
176
     1
290
     0
176
     1
 90
       50
176
     1
 90
       50
176
     1
 90
       50
176
     1
290
     0
176
     1
 90
       50
176
     1
 62
   256
176
     0
 40
1.0
176
     0
 90
        2
176
     1
  1
strokes_ogs.tif
176
     1
290
     0
176
     1
 40
1.0
176
     1
 40
1.0
176
     1
  0
DICTIONARYVAR
  5
10147
102
{ACAD_REACTORS
330
100D2
102
}
330
100D2
100
DictionaryVariables
280
     0
  1
1:1
  0
DICTIONARYVAR
  5
10143
102
{ACAD_REACTORS
330
100D2
102
}
330
100D2
100
DictionaryVariables
280
     0
  1
STANDARD
  0
DICTIONARYVAR
  5
10142
102
{ACAD_REACTORS
330
100D2
102
}
330
100D2
100
DictionaryVariables
280
     0
  1
STANDARD
  0
DICTIONARYVAR
  5
10144
102
{ACAD_REACTORS
330
100D2
102
}
330
100D2
100
DictionaryVariables
280
     0
  1
Imperial24
  0
DICTIONARYVAR
  5
10145
102
{ACAD_REACTORS
330
100D2
102
}
330
100D2
100
DictionaryVariables
280
     0
  1
Imperial24
  0
DICTIONARYVAR
  5
10149
102
{ACAD_REACTORS
330
100D2
102
}
330
100D2
100
DictionaryVariables
280
     0
  1
1
  0
DICTIONARYVAR
  5
1014A
102
{ACAD_REACTORS
330
100D2
102
}
330
100D2
100
DictionaryVariables
280
     0
  1
15
  0
DICTIONARYVAR
  5
10148
102
{ACAD_REACTORS
330
100D2
102
}
330
100D2
100
DictionaryVariables
280
     0
  1
0
  0
DICTIONARYVAR
  5
10146
102
{ACAD_REACTORS
330
100D2
102
}
330
100D2
100
DictionaryVariables
280
     0
  1
0
  0
ACDBASSOCNETWORK
  5
100C7
102
{ACAD_REACTORS
330
100C6
102
}
330
100C6
100
AcDbAssocAction
 90
        2
 90
        0
330
100C9
360
0
 90
        1
 90
        0
 90
        0
 90
        0
 90
        0
 90
        0
 90
        0
100
AcDbAssocNetwork
 90
        0
 90
       42
 90
       20
360
100CA
360
100EA
360
10103
360
10124
360
10161
360
10176
360
1018D
360
101A4
360
101D6
360
10204
360
10227
360
1023C
360
10253
360
1026A
360
1027F
360
10294
360
102AB
360
102C2
360
102D7
360
102EE
 90
        0
  0
DICTIONARY
  5
1000E
330
1000D
100
AcDbDictionary
280
     1
281
     1
  3
BUMPTILE
360
10010
  3
DIFFUSETILE
360
1000F
  3
OPACITYTILE
360
10013
  3
REFLECTIONTILE
360
10012
  3
REFRACTIONTILE
360
10014
  3
SPECULARTILE
360
10011
  0
DICTIONARY
  5
10006
330
10005
100
AcDbDictionary
280
     1
281
     1
  3
BUMPTILE
360
10008
  3
DIFFUSETILE
360
10007
  3
OPACITYTILE
360
1000B
  3
REFLECTIONTILE
360
1000A
  3
REFRACTIONTILE
360
1000C
  3
SPECULARTILE
360
10009
  0
DICTIONARY
  5
10016
330
10015
100
AcDbDictionary
280
     1
281
     1
  3
BUMPTILE
360
10018
  3
DIFFUSETILE
360
10017
  3
OPACITYTILE
360
1001B
  3
REFLECTIONTILE
360
1001A
  3
REFRACTIONTILE
360
1001C
  3
SPECULARTILE
360
10019
  0
DICTIONARY
  5
10309
330
10039
100
AcDbDictionary
280
     1
281
     1
  3
ACAD_ROUNDTRIP_2008_TABLESTYLE_CELLSTYLEMAP
360
1030A
  0
ACDBASSOCACTION
  5
100CA
330
100C7
100
AcDbAssocAction
 90
        2
 90
        0
330
100C7
360
100CB
 90
        1
 90
        3
 90
        3
360
100CE
360
100CF
360
100D0
 90
        0
 90
        3
360
100CC
360
100CD
360
100D1
 90
        0
 90
        9
 90
        0
  1
AlignItems
 90
        0
 90
        1
 90
        0
330
0
330
0
 90
        0
  1
AxesAngle
 90
        2
 90
        1
 40
1.570796326794896
330
0
330
0
 90
        0
  1
ItemSpacing
 90
        1
 90
        1
 40
42.71918650631437
330
0
330
0
 90
        0
  1
Items
 90
        0
 90
        1
 90
        6
330
0
330
0
 90
        0
  1
LevelSpacing
 90
        1
 90
        1
 40
1.0
330
0
330
0
 90
        0
  1
Levels
 90
        0
 90
        1
 90
        1
330
0
330
0
 90
        0
  1
RowElevation
 90
        1
 90
        1
 40
0.0
330
0
330
0
 90
        0
  1
RowSpacing
 90
        1
 90
        1
 40
75.00000000000001
330
0
330
0
 90
        0
  1
Rows
 90
        0
 90
        1
 90
        1
330
0
330
0
  0
ACDBASSOCACTION
  5
100EA
330
100C7
100
AcDbAssocAction
 90
        2
 90
        0
330
100C7
360
100EB
 90
        3
 90
        3
 90
        3
360
100EC
360
100ED
360
100EE
 90
        0
 90
        3
360
100EF
360
100F0
360
100F1
 90
        0
 90
        9
 90
        0
  1
AlignItems
 90
        0
 90
        1
 90
        0
330
0
330
0
 90
        0
  1
AxesAngle
 90
        2
 90
        1
 40
1.570796326794896
330
0
330
0
 90
        0
  1
ItemSpacing
 90
        1
 90
        1
 40
42.71918650631437
330
0
330
0
 90
        0
  1
Items
 90
        0
 90
        1
 90
        6
330
0
330
0
 90
        0
  1
LevelSpacing
 90
        1
 90
        1
 40
1.0
330
0
330
0
 90
        0
  1
Levels
 90
        0
 90
        1
 90
        1
330
0
330
0
 90
        0
  1
RowElevation
 90
        1
 90
        1
 40
0.0
330
0
330
0
 90
        0
  1
RowSpacing
 90
        1
 90
        1
 40
75.00000000000001
330
0
330
0
 90
        0
  1
Rows
 90
        0
 90
        1
 90
        1
330
0
330
0
  0
ACDBASSOCACTION
  5
10103
330
100C7
100
AcDbAssocAction
 90
        2
 90
        0
330
100C7
360
10104
 90
        4
 90
        3
 90
        3
360
10107
360
10108
360
10109
 90
        0
 90
        3
360
10105
360
10106
360
1010A
 90
        0
 90
        9
 90
        0
  1
AlignItems
 90
        0
 90
        1
 90
        0
330
0
330
0
 90
        0
  1
AxesAngle
 90
        2
 90
        1
 40
1.570796326794896
330
0
330
0
 90
        0
  1
ItemSpacing
 90
        1
 90
        1
 40
42.82742371009876
330
0
330
0
 90
        0
  1
Items
 90
        0
 90
        1
 90
        6
330
0
330
0
 90
        0
  1
LevelSpacing
 90
        1
 90
        1
 40
1.0
330
0
330
0
 90
        0
  1
Levels
 90
        0
 90
        1
 90
        1
330
0
330
0
 90
        0
  1
RowElevation
 90
        1
 90
        1
 40
0.0
330
0
330
0
 90
        0
  1
RowSpacing
 90
        1
 90
        1
 40
29.99999999999997
330
0
330
0
 90
        0
  1
Rows
 90
        0
 90
        1
 90
        1
330
0
330
0
  0
ACDBASSOCACTION
  5
10124
330
100C7
100
AcDbAssocAction
 90
        2
 90
        0
330
100C7
360
10125
 90
        6
 90
        3
 90
        3
360
10126
360
10127
360
10128
 90
        0
 90
        3
360
10129
360
1012A
360
1012B
 90
        0
 90
        9
 90
        0
  1
AlignItems
 90
        0
 90
        1
 90
        0
330
0
330
0
 90
        0
  1
AxesAngle
 90
        2
 90
        1
 40
1.570796326794896
330
0
330
0
 90
        0
  1
ItemSpacing
 90
        1
 90
        1
 40
42.82742371009876
330
0
330
0
 90
        0
  1
Items
 90
        0
 90
        1
 90
        6
330
0
330
0
 90
        0
  1
LevelSpacing
 90
        1
 90
        1
 40
1.0
330
0
330
0
 90
        0
  1
Levels
 90
        0
 90
        1
 90
        1
330
0
330
0
 90
        0
  1
RowElevation
 90
        1
 90
        1
 40
0.0
330
0
330
0
 90
        0
  1
RowSpacing
 90
        1
 90
        1
 40
29.99999999999997
330
0
330
0
 90
        0
  1
Rows
 90
        0
 90
        1
 90
        1
330
0
330
0
  0
ACDBASSOCACTION
  5
10161
330
100C7
100
AcDbAssocAction
 90
        2
 90
        0
330
100C7
360
10162
 90
       11
 90
        3
 90
        3
360
10163
360
10164
360
10165
 90
        0
 90
        3
360
10166
360
10167
360
10168
 90
        0
 90
        9
 90
        0
  1
AlignItems
 90
        0
 90
        1
 90
        0
330
0
330
0
 90
        0
  1
AxesAngle
 90
        2
 90
        1
 40
1.570796326794896
330
0
330
0
 90
        0
  1
ItemSpacing
 90
        1
 90
        1
 40
42.71918650631437
330
0
330
0
 90
        0
  1
Items
 90
        0
 90
        1
 90
        6
330
0
330
0
 90
        0
  1
LevelSpacing
 90
        1
 90
        1
 40
1.0
330
0
330
0
 90
        0
  1
Levels
 90
        0
 90
        1
 90
        1
330
0
330
0
 90
        0
  1
RowElevation
 90
        1
 90
        1
 40
0.0
330
0
330
0
 90
        0
  1
RowSpacing
 90
        1
 90
        1
 40
75.00000000000001
330
0
330
0
 90
        0
  1
Rows
 90
        0
 90
        1
 90
        1
330
0
330
0
  0
ACDBASSOCACTION
  5
10176
330
100C7
100
AcDbAssocAction
 90
        2
 90
        0
330
100C7
360
10177
 90
       12
 90
        3
 90
        3
360
10178
360
10179
360
1017A
 90
        0
 90
        3
360
1017B
360
1017C
360
1017D
 90
        0
 90
        9
 90
        0
  1
AlignItems
 90
        0
 90
        1
 90
        0
330
0
330
0
 90
        0
  1
AxesAngle
 90
        2
 90
        1
 40
1.570796326794896
330
0
330
0
 90
        0
  1
ItemSpacing
 90
        1
 90
        1
 40
42.71918650631437
330
0
330
0
 90
        0
  1
Items
 90
        0
 90
        1
 90
        6
330
0
330
0
 90
        0
  1
LevelSpacing
 90
        1
 90
        1
 40
1.0
330
0
330
0
 90
        0
  1
Levels
 90
        0
 90
        1
 90
        1
330
0
330
0
 90
        0
  1
RowElevation
 90
        1
 90
        1
 40
0.0
330
0
330
0
 90
        0
  1
RowSpacing
 90
        1
 90
        1
 40
75.00000000000001
330
0
330
0
 90
        0
  1
Rows
 90
        0
 90
        1
 90
        1
330
0
330
0
  0
ACDBASSOCACTION
  5
1018D
330
100C7
100
AcDbAssocAction
 90
        2
 90
        0
330
100C7
360
1018E
 90
       13
 90
        3
 90
        3
360
1018F
360
10190
360
10191
 90
        0
 90
        3
360
10192
360
10193
360
10194
 90
        0
 90
        9
 90
        0
  1
AlignItems
 90
        0
 90
        1
 90
        0
330
0
330
0
 90
        0
  1
AxesAngle
 90
        2
 90
        1
 40
1.570796326794896
330
0
330
0
 90
        0
  1
ItemSpacing
 90
        1
 90
        1
 40
42.82742371009876
330
0
330
0
 90
        0
  1
Items
 90
        0
 90
        1
 90
        6
330
0
330
0
 90
        0
  1
LevelSpacing
 90
        1
 90
        1
 40
1.0
330
0
330
0
 90
        0
  1
Levels
 90
        0
 90
        1
 90
        1
330
0
330
0
 90
        0
  1
RowElevation
 90
        1
 90
        1
 40
0.0
330
0
330
0
 90
        0
  1
RowSpacing
 90
        1
 90
        1
 40
29.99999999999997
330
0
330
0
 90
        0
  1
Rows
 90
        0
 90
        1
 90
        1
330
0
330
0
  0
ACDBASSOCACTION
  5
101A4
330
100C7
100
AcDbAssocAction
 90
        2
 90
        0
330
100C7
360
101A5
 90
       14
 90
        3
 90
        3
360
101A6
360
101A7
360
101A8
 90
        0
 90
        3
360
101A9
360
101AA
360
101AB
 90
        0
 90
        9
 90
        0
  1
AlignItems
 90
        0
 90
        1
 90
        0
330
0
330
0
 90
        0
  1
AxesAngle
 90
        2
 90
        1
 40
1.570796326794896
330
0
330
0
 90
        0
  1
ItemSpacing
 90
        1
 90
        1
 40
42.82742371009876
330
0
330
0
 90
        0
  1
Items
 90
        0
 90
        1
 90
        6
330
0
330
0
 90
        0
  1
LevelSpacing
 90
        1
 90
        1
 40
1.0
330
0
330
0
 90
        0
  1
Levels
 90
        0
 90
        1
 90
        1
330
0
330
0
 90
        0
  1
RowElevation
 90
        1
 90
        1
 40
0.0
330
0
330
0
 90
        0
  1
RowSpacing
 90
        1
 90
        1
 40
29.99999999999997
330
0
330
0
 90
        0
  1
Rows
 90
        0
 90
        1
 90
        1
330
0
330
0
  0
ACDBASSOCACTION
  5
101D6
330
100C7
100
AcDbAssocAction
 90
        2
 90
        0
330
100C7
360
101D7
 90
       20
 90
        3
 90
        3
360
101D8
360
101D9
360
101DA
 90
        0
 90
        3
360
101DB
360
101DC
360
101DD
 90
        0
 90
        9
 90
        0
  1
AlignItems
 90
        0
 90
        1
 90
        0
330
0
330
0
 90
        0
  1
AxesAngle
 90
        2
 90
        1
 40
1.570796326794896
330
0
330
0
 90
        0
  1
ItemSpacing
 90
        1
 90
        1
 40
42.71918650631437
330
0
330
0
 90
        0
  1
Items
 90
        0
 90
        1
 90
        6
330
0
330
0
 90
        0
  1
LevelSpacing
 90
        1
 90
        1
 40
1.0
330
0
330
0
 90
        0
  1
Levels
 90
        0
 90
        1
 90
        1
330
0
330
0
 90
        0
  1
RowElevation
 90
        1
 90
        1
 40
0.0
330
0
330
0
 90
        0
  1
RowSpacing
 90
        1
 90
        1
 40
75.00000000000001
330
0
330
0
 90
        0
  1
Rows
 90
        0
 90
        1
 90
        1
330
0
330
0
  0
ACDBASSOCACTION
  5
10204
330
100C7
100
AcDbAssocAction
 90
        2
 90
        0
330
100C7
360
10205
 90
       22
 90
        3
 90
        3
360
10206
360
10207
360
10208
 90
        0
 90
        3
360
10209
360
1020A
360
1020B
 90
        0
 90
        9
 90
        0
  1
AlignItems
 90
        0
 90
        1
 90
        0
330
0
330
0
 90
        0
  1
AxesAngle
 90
        2
 90
        1
 40
1.570796326794896
330
0
330
0
 90
        0
  1
ItemSpacing
 90
        1
 90
        1
 40
42.82742371009876
330
0
330
0
 90
        0
  1
Items
 90
        0
 90
        1
 90
        6
330
0
330
0
 90
        0
  1
LevelSpacing
 90
        1
 90
        1
 40
1.0
330
0
330
0
 90
        0
  1
Levels
 90
        0
 90
        1
 90
        1
330
0
330
0
 90
        0
  1
RowElevation
 90
        1
 90
        1
 40
0.0
330
0
330
0
 90
        0
  1
RowSpacing
 90
        1
 90
        1
 40
29.99999999999997
330
0
330
0
 90
        0
  1
Rows
 90
        0
 90
        1
 90
        1
330
0
330
0
  0
ACDBASSOCACTION
  5
10227
330
100C7
100
AcDbAssocAction
 90
        2
 90
        0
330
100C7
360
10228
 90
       33
 90
        3
 90
        3
360
10229
360
1022A
360
1022B
 90
        0
 90
        3
360
1022C
360
1022D
360
1022E
 90
        0
 90
        9
 90
        0
  1
AlignItems
 90
        0
 90
        1
 90
        0
330
0
330
0
 90
        0
  1
AxesAngle
 90
        2
 90
        1
 40
1.570796326794896
330
0
330
0
 90
        0
  1
ItemSpacing
 90
        1
 90
        1
 40
42.71918650631437
330
0
330
0
 90
        0
  1
Items
 90
        0
 90
        1
 90
        6
330
0
330
0
 90
        0
  1
LevelSpacing
 90
        1
 90
        1
 40
1.0
330
0
330
0
 90
        0
  1
Levels
 90
        0
 90
        1
 90
        1
330
0
330
0
 90
        0
  1
RowElevation
 90
        1
 90
        1
 40
0.0
330
0
330
0
 90
        0
  1
RowSpacing
 90
        1
 90
        1
 40
75.00000000000001
330
0
330
0
 90
        0
  1
Rows
 90
        0
 90
        1
 90
        1
330
0
330
0
  0
ACDBASSOCACTION
  5
1023C
330
100C7
100
AcDbAssocAction
 90
        2
 90
        0
330
100C7
360
1023D
 90
       34
 90
        3
 90
        3
360
1023E
360
1023F
360
10240
 90
        0
 90
        3
360
10241
360
10242
360
10243
 90
        0
 90
        9
 90
        0
  1
AlignItems
 90
        0
 90
        1
 90
        0
330
0
330
0
 90
        0
  1
AxesAngle
 90
        2
 90
        1
 40
1.570796326794896
330
0
330
0
 90
        0
  1
ItemSpacing
 90
        1
 90
        1
 40
42.71918650631437
330
0
330
0
 90
        0
  1
Items
 90
        0
 90
        1
 90
        6
330
0
330
0
 90
        0
  1
LevelSpacing
 90
        1
 90
        1
 40
1.0
330
0
330
0
 90
        0
  1
Levels
 90
        0
 90
        1
 90
        1
330
0
330
0
 90
        0
  1
RowElevation
 90
        1
 90
        1
 40
0.0
330
0
330
0
 90
        0
  1
RowSpacing
 90
        1
 90
        1
 40
75.00000000000001
330
0
330
0
 90
        0
  1
Rows
 90
        0
 90
        1
 90
        1
330
0
330
0
  0
ACDBASSOCACTION
  5
10253
330
100C7
100
AcDbAssocAction
 90
        2
 90
        0
330
100C7
360
10254
 90
       35
 90
        3
 90
        3
360
10255
360
10256
360
10257
 90
        0
 90
        3
360
10258
360
10259
360
1025A
 90
        0
 90
        9
 90
        0
  1
AlignItems
 90
        0
 90
        1
 90
        0
330
0
330
0
 90
        0
  1
AxesAngle
 90
        2
 90
        1
 40
1.570796326794896
330
0
330
0
 90
        0
  1
ItemSpacing
 90
        1
 90
        1
 40
42.82742371009876
330
0
330
0
 90
        0
  1
Items
 90
        0
 90
        1
 90
        6
330
0
330
0
 90
        0
  1
LevelSpacing
 90
        1
 90
        1
 40
1.0
330
0
330
0
 90
        0
  1
Levels
 90
        0
 90
        1
 90
        1
330
0
330
0
 90
        0
  1
RowElevation
 90
        1
 90
        1
 40
0.0
330
0
330
0
 90
        0
  1
RowSpacing
 90
        1
 90
        1
 40
29.99999999999997
330
0
330
0
 90
        0
  1
Rows
 90
        0
 90
        1
 90
        1
330
0
330
0
  0
ACDBASSOCACTION
  5
1026A
330
100C7
100
AcDbAssocAction
 90
        2
 90
        0
330
100C7
360
1026B
 90
       36
 90
        3
 90
        3
360
1026C
360
1026D
360
1026E
 90
        0
 90
        3
360
1026F
360
10270
360
10271
 90
        0
 90
        9
 90
        0
  1
AlignItems
 90
        0
 90
        1
 90
        0
330
0
330
0
 90
        0
  1
AxesAngle
 90
        2
 90
        1
 40
1.570796326794896
330
0
330
0
 90
        0
  1
ItemSpacing
 90
        1
 90
        1
 40
42.82742371009876
330
0
330
0
 90
        0
  1
Items
 90
        0
 90
        1
 90
        6
330
0
330
0
 90
        0
  1
LevelSpacing
 90
        1
 90
        1
 40
1.0
330
0
330
0
 90
        0
  1
Levels
 90
        0
 90
        1
 90
        1
330
0
330
0
 90
        0
  1
RowElevation
 90
        1
 90
        1
 40
0.0
330
0
330
0
 90
        0
  1
RowSpacing
 90
        1
 90
        1
 40
29.99999999999997
330
0
330
0
 90
        0
  1
Rows
 90
        0
 90
        1
 90
        1
330
0
330
0
  0
ACDBASSOCACTION
  5
1027F
330
100C7
100
AcDbAssocAction
 90
        2
 90
        0
330
100C7
360
10280
 90
       37
 90
        3
 90
        3
360
10281
360
10282
360
10283
 90
        0
 90
        3
360
10284
360
10285
360
10286
 90
        0
 90
        9
 90
        0
  1
AlignItems
 90
        0
 90
        1
 90
        0
330
0
330
0
 90
        0
  1
AxesAngle
 90
        2
 90
        1
 40
1.570796326794896
330
0
330
0
 90
        0
  1
ItemSpacing
 90
        1
 90
        1
 40
42.71918650631437
330
0
330
0
 90
        0
  1
Items
 90
        0
 90
        1
 90
        6
330
0
330
0
 90
        0
  1
LevelSpacing
 90
        1
 90
        1
 40
1.0
330
0
330
0
 90
        0
  1
Levels
 90
        0
 90
        1
 90
        1
330
0
330
0
 90
        0
  1
RowElevation
 90
        1
 90
        1
 40
0.0
330
0
330
0
 90
        0
  1
RowSpacing
 90
        1
 90
        1
 40
75.00000000000001
330
0
330
0
 90
        0
  1
Rows
 90
        0
 90
        1
 90
        1
330
0
330
0
  0
ACDBASSOCACTION
  5
10294
330
100C7
100
AcDbAssocAction
 90
        2
 90
        0
330
100C7
360
10295
 90
       38
 90
        3
 90
        3
360
10296
360
10297
360
10298
 90
        0
 90
        3
360
10299
360
1029A
360
1029B
 90
        0
 90
        9
 90
        0
  1
AlignItems
 90
        0
 90
        1
 90
        0
330
0
330
0
 90
        0
  1
AxesAngle
 90
        2
 90
        1
 40
1.570796326794896
330
0
330
0
 90
        0
  1
ItemSpacing
 90
        1
 90
        1
 40
42.71918650631437
330
0
330
0
 90
        0
  1
Items
 90
        0
 90
        1
 90
        6
330
0
330
0
 90
        0
  1
LevelSpacing
 90
        1
 90
        1
 40
1.0
330
0
330
0
 90
        0
  1
Levels
 90
        0
 90
        1
 90
        1
330
0
330
0
 90
        0
  1
RowElevation
 90
        1
 90
        1
 40
0.0
330
0
330
0
 90
        0
  1
RowSpacing
 90
        1
 90
        1
 40
75.00000000000001
330
0
330
0
 90
        0
  1
Rows
 90
        0
 90
        1
 90
        1
330
0
330
0
  0
ACDBASSOCACTION
  5
102AB
330
100C7
100
AcDbAssocAction
 90
        2
 90
        0
330
100C7
360
102AC
 90
       39
 90
        3
 90
        3
360
102AD
360
102AE
360
102AF
 90
        0
 90
        3
360
102B0
360
102B1
360
102B2
 90
        0
 90
        9
 90
        0
  1
AlignItems
 90
        0
 90
        1
 90
        0
330
0
330
0
 90
        0
  1
AxesAngle
 90
        2
 90
        1
 40
1.570796326794896
330
0
330
0
 90
        0
  1
ItemSpacing
 90
        1
 90
        1
 40
42.82742371009876
330
0
330
0
 90
        0
  1
Items
 90
        0
 90
        1
 90
        6
330
0
330
0
 90
        0
  1
LevelSpacing
 90
        1
 90
        1
 40
1.0
330
0
330
0
 90
        0
  1
Levels
 90
        0
 90
        1
 90
        1
330
0
330
0
 90
        0
  1
RowElevation
 90
        1
 90
        1
 40
0.0
330
0
330
0
 90
        0
  1
RowSpacing
 90
        1
 90
        1
 40
29.99999999999997
330
0
330
0
 90
        0
  1
Rows
 90
        0
 90
        1
 90
        1
330
0
330
0
  0
ACDBASSOCACTION
  5
102C2
330
100C7
100
AcDbAssocAction
 90
        2
 90
        0
330
100C7
360
102C3
 90
       40
 90
        3
 90
        3
360
102C4
360
102C5
360
102C6
 90
        0
 90
        3
360
102C7
360
102C8
360
102C9
 90
        0
 90
        9
 90
        0
  1
AlignItems
 90
        0
 90
        1
 90
        0
330
0
330
0
 90
        0
  1
AxesAngle
 90
        2
 90
        1
 40
1.570796326794896
330
0
330
0
 90
        0
  1
ItemSpacing
 90
        1
 90
        1
 40
42.82742371009876
330
0
330
0
 90
        0
  1
Items
 90
        0
 90
        1
 90
        6
330
0
330
0
 90
        0
  1
LevelSpacing
 90
        1
 90
        1
 40
1.0
330
0
330
0
 90
        0
  1
Levels
 90
        0
 90
        1
 90
        1
330
0
330
0
 90
        0
  1
RowElevation
 90
        1
 90
        1
 40
0.0
330
0
330
0
 90
        0
  1
RowSpacing
 90
        1
 90
        1
 40
29.99999999999997
330
0
330
0
 90
        0
  1
Rows
 90
        0
 90
        1
 90
        1
330
0
330
0
  0
ACDBASSOCACTION
  5
102D7
330
100C7
100
AcDbAssocAction
 90
        2
 90
        0
330
100C7
360
102D8
 90
       41
 90
        3
 90
        3
360
102D9
360
102DA
360
102DB
 90
        0
 90
        3
360
102DC
360
102DD
360
102DE
 90
        0
 90
        9
 90
        0
  1
AlignItems
 90
        0
 90
        1
 90
        0
330
0
330
0
 90
        0
  1
AxesAngle
 90
        2
 90
        1
 40
1.570796326794896
330
0
330
0
 90
        0
  1
ItemSpacing
 90
        1
 90
        1
 40
42.71918650631437
330
0
330
0
 90
        0
  1
Items
 90
        0
 90
        1
 90
        6
330
0
330
0
 90
        0
  1
LevelSpacing
 90
        1
 90
        1
 40
1.0
330
0
330
0
 90
        0
  1
Levels
 90
        0
 90
        1
 90
        1
330
0
330
0
 90
        0
  1
RowElevation
 90
        1
 90
        1
 40
0.0
330
0
330
0
 90
        0
  1
RowSpacing
 90
        1
 90
        1
 40
75.00000000000001
330
0
330
0
 90
        0
  1
Rows
 90
        0
 90
        1
 90
        1
330
0
330
0
  0
ACDBASSOCACTION
  5
102EE
330
100C7
100
AcDbAssocAction
 90
        2
 90
        0
330
100C7
360
102EF
 90
       42
 90
        3
 90
        3
360
102F0
360
102F1
360
102F2
 90
        0
 90
        3
360
102F3
360
102F4
360
102F5
 90
        0
 90
        9
 90
        0
  1
AlignItems
 90
        0
 90
        1
 90
        0
330
0
330
0
 90
        0
  1
AxesAngle
 90
        2
 90
        1
 40
1.570796326794896
330
0
330
0
 90
        0
  1
ItemSpacing
 90
        1
 90
        1
 40
42.82742371009876
330
0
330
0
 90
        0
  1
Items
 90
        0
 90
        1
 90
        6
330
0
330
0
 90
        0
  1
LevelSpacing
 90
        1
 90
        1
 40
1.0
330
0
330
0
 90
        0
  1
Levels
 90
        0
 90
        1
 90
        1
330
0
330
0
 90
        0
  1
RowElevation
 90
        1
 90
        1
 40
0.0
330
0
330
0
 90
        0
  1
RowSpacing
 90
        1
 90
        1
 40
29.99999999999997
330
0
330
0
 90
        0
  1
Rows
 90
        0
 90
        1
 90
        1
330
0
330
0
  0
XRECORD
  5
10010
102
{ACAD_REACTORS
330
1000E
102
}
330
1000E
100
AcDbXrecord
280
     1
270
     1
271
     1
  0
XRECORD
  5
1000F
102
{ACAD_REACTORS
330
1000E
102
}
330
1000E
100
AcDbXrecord
280
     1
270
     1
271
     1
  0
XRECORD
  5
10013
102
{ACAD_REACTORS
330
1000E
102
}
330
1000E
100
AcDbXrecord
280
     1
270
     1
271
     1
  0
XRECORD
  5
10012
102
{ACAD_REACTORS
330
1000E
102
}
330
1000E
100
AcDbXrecord
280
     1
270
     1
271
     1
  0
XRECORD
  5
10014
102
{ACAD_REACTORS
330
1000E
102
}
330
1000E
100
AcDbXrecord
280
     1
270
     1
271
     1
  0
XRECORD
  5
10011
102
{ACAD_REACTORS
330
1000E
102
}
330
1000E
100
AcDbXrecord
280
     1
270
     1
271
     1
  0
XRECORD
  5
10008
102
{ACAD_REACTORS
330
10006
102
}
330
10006
100
AcDbXrecord
280
     1
270
     1
271
     1
  0
XRECORD
  5
10007
102
{ACAD_REACTORS
330
10006
102
}
330
10006
100
AcDbXrecord
280
     1
270
     1
271
     1
  0
XRECORD
  5
1000B
102
{ACAD_REACTORS
330
10006
102
}
330
10006
100
AcDbXrecord
280
     1
270
     1
271
     1
  0
XRECORD
  5
1000A
102
{ACAD_REACTORS
330
10006
102
}
330
10006
100
AcDbXrecord
280
     1
270
     1
271
     1
  0
XRECORD
  5
1000C
102
{ACAD_REACTORS
330
10006
102
}
330
10006
100
AcDbXrecord
280
     1
270
     1
271
     1
  0
XRECORD
  5
10009
102
{ACAD_REACTORS
330
10006
102
}
330
10006
100
AcDbXrecord
280
     1
270
     1
271
     1
  0
XRECORD
  5
10018
102
{ACAD_REACTORS
330
10016
102
}
330
10016
100
AcDbXrecord
280
     1
270
     1
271
     1
  0
XRECORD
  5
10017
102
{ACAD_REACTORS
330
10016
102
}
330
10016
100
AcDbXrecord
280
     1
270
     1
271
     1
  0
XRECORD
  5
1001B
102
{ACAD_REACTORS
330
10016
102
}
330
10016
100
AcDbXrecord
280
     1
270
     1
271
     1
  0
XRECORD
  5
1001A
102
{ACAD_REACTORS
330
10016
102
}
330
10016
100
AcDbXrecord
280
     1
270
     1
271
     1
  0
XRECORD
  5
1001C
102
{ACAD_REACTORS
330
10016
102
}
330
10016
100
AcDbXrecord
280
     1
270
     1
271
     1
  0
XRECORD
  5
10019
102
{ACAD_REACTORS
330
10016
102
}
330
10016
100
AcDbXrecord
280
     1
270
     1
271
     1
  0
CELLSTYLEMAP
  5
1030A
102
{ACAD_REACTORS
330
10309
102
}
330
10309
100
AcDbCellStyleMap
 90
        3
300
CELLSTYLE
  1
TABLEFORMAT_BEGIN
 90
        5
170
     1
 91
        0
 92
    32768
 62
   257
 93
        1
300
CONTENTFORMAT
  1
CONTENTFORMAT_BEGIN
 90
        0
 91
        0
 92
      512
 93
        0
300

 40
0.0
140
1.0
 94
        5
 62
     0
340
11
144
0.25
309
CONTENTFORMAT_END
171
     0
 94
        0
309
TABLEFORMAT_END
  1
CELLSTYLE_BEGIN
 90
        1
 91
        1
300
_TITLE
309
CELLSTYLE_END
300
CELLSTYLE
  1
TABLEFORMAT_BEGIN
 90
        5
170
     1
 91
        0
 92
        0
 62
   257
 93
        1
300
CONTENTFORMAT
  1
CONTENTFORMAT_BEGIN
 90
        0
 91
        0
 92
      512
 93
        0
300

 40
0.0
140
1.0
 94
        5
 62
     0
340
11
144
0.18
309
CONTENTFORMAT_END
171
     0
 94
        0
309
TABLEFORMAT_END
  1
CELLSTYLE_BEGIN
 90
        2
 91
        1
300
_HEADER
309
CELLSTYLE_END
300
CELLSTYLE
  1
TABLEFORMAT_BEGIN
 90
        5
170
     1
 91
        0
 92
        0
 62
   257
 93
        1
300
CONTENTFORMAT
  1
CONTENTFORMAT_BEGIN
 90
        0
 91
        0
 92
      512
 93
        0
300

 40
0.0
140
1.0
 94
        2
 62
     0
340
11
144
0.18
309
CONTENTFORMAT_END
171
     0
 94
        0
309
TABLEFORMAT_END
  1
CELLSTYLE_BEGIN
 90
        3
 91
        2
300
_DATA
309
CELLSTYLE_END
  0
ACDBASSOCARRAYACTIONBODY
  5
100CB
330
100CA
100
AcDbAssocActionBody
 90
        2
100
AcDbAssocArrayActionBody
 90
        1
  1
AcDbAssocArrayRectangularParameters
 90
        0
 90
        6
  1
AcDbAssocArrayItem
100
AcDbAssocArrayItem
 90
        0
 90
        0
 90
        0
 90
        0
 90
        8
 11
0.0
 21
0.0
 31
0.0
330
100D4
100
AcDbAssocArrayItem
 90
        0
 90
        1
 90
        0
 90
        0
 90
        8
 11
42.71918650631437
 21
0.0
 31
0.0
330
100D5
100
AcDbAssocArrayItem
 90
        0
 90
        2
 90
        0
 90
        0
 90
        8
 11
85.43837301262874
 21
0.0
 31
0.0
330
100D6
100
AcDbAssocArrayItem
 90
        0
 90
        3
 90
        0
 90
        0
 90
        8
 11
128.1575595189431
 21
0.0
 31
0.0
330
100D7
100
AcDbAssocArrayItem
 90
        0
 90
        4
 90
        0
 90
        0
 90
        8
 11
170.8767460252575
 21
0.0
 31
0.0
330
100D8
100
AcDbAssocArrayItem
 90
        0
 90
        5
 90
        0
 90
        0
 90
        8
 11
213.5959325315718
 21
0.0
 31
0.0
330
100D9
 40
1.0
 40
0.0
 40
0.0
 40
-25.0
 40
0.0
 40
1.0
 40
0.0
 40
25.0
 40
0.0
 40
0.0
 40
1.0
 40
0.0
 40
0.0
 40
0.0
 40
0.0
 40
1.0
  0
ACDBASSOCDEPENDENCY
  5
100CE
330
100CA
100
AcDbAssocDependency
 90
        2
 90
        0
290
     0
290
     1
290
     1
290
     1
 90
        0
330
100C0
290
     0
330
0
330
0
360
0
 90
        1
  0
ACDBASSOCDEPENDENCY
  5
100CF
330
100CA
100
AcDbAssocDependency
 90
        2
 90
        0
290
     1
290
     0
290
     1
290
     1
 90
        0
330
100BD
290
     0
330
0
330
0
360
0
 90
        2
  0
ACDBASSOCDEPENDENCY
  5
100D0
330
100CA
100
AcDbAssocDependency
 90
        2
 90
        0
290
     1
290
     1
290
     1
290
     1
 90
-2147483648
330
100C3
290
     0
330
0
330
0
360
0
 90
        3
  0
ACDBASSOCVERTEXACTIONPARAM
  5
100CC
330
100CA
100
AcDbAssocActionParam
 90
        1
 90
        0
  1
BaseNormal
100
AcDbAssocSingleDependencyActionParam
 90
        0
330
0
100
AcDbAssocVertexActionParam
 90
        0
 10
0.0
 20
0.0
 30
1.0
  0
ACDBASSOCVERTEXACTIONPARAM
  5
100CD
330
100CA
100
AcDbAssocActionParam
 90
        1
 90
        0
  1
Origin
100
AcDbAssocSingleDependencyActionParam
 90
        0
330
0
100
AcDbAssocVertexActionParam
 90
        0
 10
0.0
 20
0.0
 30
0.0
  0
ACDBASSOCVERTEXACTIONPARAM
  5
100D1
330
100CA
100
AcDbAssocActionParam
 90
        1
 90
        0
  1
basePoint
100
AcDbAssocSingleDependencyActionParam
 90
        0
330
0
100
AcDbAssocVertexActionParam
 90
        0
 10
0.0
 20
0.0
 30
0.0
  0
ACDBASSOCARRAYACTIONBODY
  5
100EB
330
100EA
100
AcDbAssocActionBody
 90
        2
100
AcDbAssocArrayActionBody
 90
        1
  1
AcDbAssocArrayRectangularParameters
 90
        0
 90
        6
  1
AcDbAssocArrayItem
100
AcDbAssocArrayItem
 90
        0
 90
        0
 90
        0
 90
        0
 90
        8
 11
0.0
 21
0.0
 31
0.0
330
100E3
100
AcDbAssocArrayItem
 90
        0
 90
        1
 90
        0
 90
        0
 90
        8
 11
42.71918650631437
 21
0.0
 31
0.0
330
100E4
100
AcDbAssocArrayItem
 90
        0
 90
        2
 90
        0
 90
        0
 90
        8
 11
85.43837301262874
 21
0.0
 31
0.0
330
100E5
100
AcDbAssocArrayItem
 90
        0
 90
        3
 90
        0
 90
        0
 90
        8
 11
128.1575595189431
 21
0.0
 31
0.0
330
100E6
100
AcDbAssocArrayItem
 90
        0
 90
        4
 90
        0
 90
        0
 90
        8
 11
170.8767460252575
 21
0.0
 31
0.0
330
100E7
100
AcDbAssocArrayItem
 90
        0
 90
        5
 90
        0
 90
        0
 90
        8
 11
213.5959325315718
 21
0.0
 31
0.0
330
100E8
 40
1.0
 40
0.0
 40
0.0
 40
-25.83318645775808
 40
0.0
 40
1.0
 40
0.0
 40
82.88065594083866
 40
0.0
 40
0.0
 40
1.0
 40
0.0
 40
0.0
 40
0.0
 40
0.0
 40
1.0
  0
ACDBASSOCDEPENDENCY
  5
100EC
330
100EA
100
AcDbAssocDependency
 90
        2
 90
        0
290
     0
290
     1
290
     1
290
     1
 90
        0
330
100E1
290
     0
330
0
330
0
360
0
 90
        1
  0
ACDBASSOCDEPENDENCY
  5
100ED
330
100EA
100
AcDbAssocDependency
 90
        2
 90
        0
290
     1
290
     0
290
     1
290
     1
 90
        0
330
100DB
290
     0
330
0
330
0
360
0
 90
        2
  0
ACDBASSOCDEPENDENCY
  5
100EE
330
100EA
100
AcDbAssocDependency
 90
        2
 90
        0
290
     1
290
     1
290
     1
290
     1
 90
-2147483648
330
100DA
290
     0
330
0
330
0
360
0
 90
        3
  0
ACDBASSOCVERTEXACTIONPARAM
  5
100EF
330
100EA
100
AcDbAssocActionParam
 90
        1
 90
        0
  1
BaseNormal
100
AcDbAssocSingleDependencyActionParam
 90
        0
330
0
100
AcDbAssocVertexActionParam
 90
        0
 10
0.0
 20
0.0
 30
1.0
  0
ACDBASSOCVERTEXACTIONPARAM
  5
100F0
330
100EA
100
AcDbAssocActionParam
 90
        1
 90
        0
  1
Origin
100
AcDbAssocSingleDependencyActionParam
 90
        0
330
0
100
AcDbAssocVertexActionParam
 90
        0
 10
0.0
 20
0.0
 30
0.0
  0
ACDBASSOCVERTEXACTIONPARAM
  5
100F1
330
100EA
100
AcDbAssocActionParam
 90
        1
 90
        0
  1
basePoint
100
AcDbAssocSingleDependencyActionParam
 90
        0
330
0
100
AcDbAssocVertexActionParam
 90
        0
 10
0.0
 20
0.0
 30
0.0
  0
ACDBASSOCARRAYACTIONBODY
  5
10104
330
10103
100
AcDbAssocActionBody
 90
        2
100
AcDbAssocArrayActionBody
 90
        1
  1
AcDbAssocArrayRectangularParameters
 90
        0
 90
        6
  1
AcDbAssocArrayItem
100
AcDbAssocArrayItem
 90
        0
 90
        0
 90
        0
 90
        0
 90
        8
 11
0.0
 21
0.0
 31
0.0
330
1010C
100
AcDbAssocArrayItem
 90
        0
 90
        1
 90
        0
 90
        0
 90
        8
 11
42.82742371009876
 21
0.0
 31
0.0
330
1010D
100
AcDbAssocArrayItem
 90
        0
 90
        2
 90
        0
 90
        0
 90
        8
 11
85.65484742019753
 21
0.0
 31
0.0
330
1010E
100
AcDbAssocArrayItem
 90
        0
 90
        3
 90
        0
 90
        0
 90
        8
 11
128.4822711302963
 21
0.0
 31
0.0
330
1010F
100
AcDbAssocArrayItem
 90
        0
 90
        4
 90
        0
 90
        0
 90
        8
 11
171.309694840395
 21
0.0
 31
0.0
330
10110
100
AcDbAssocArrayItem
 90
        0
 90
        5
 90
        0
 90
        0
 90
        8
 11
214.1371185504938
 21
0.0
 31
0.0
330
10111
 40
1.0
 40
0.0
 40
0.0
 40
-19.42232513909575
 40
0.0
 40
1.0
 40
0.0
 40
5.008812911007138
 40
0.0
 40
0.0
 40
1.0
 40
0.0
 40
0.0
 40
0.0
 40
0.0
 40
1.0
  0
ACDBASSOCDEPENDENCY
  5
10107
330
10103
100
AcDbAssocDependency
 90
        2
 90
        0
290
     0
290
     1
290
     1
290
     1
 90
        0
330
100FB
290
     0
330
0
330
0
360
0
 90
        1
  0
ACDBASSOCDEPENDENCY
  5
10108
330
10103
100
AcDbAssocDependency
 90
        2
 90
        0
290
     1
290
     0
290
     1
290
     1
 90
        0
330
100F8
290
     0
330
0
330
0
360
0
 90
        2
  0
ACDBASSOCDEPENDENCY
  5
10109
330
10103
100
AcDbAssocDependency
 90
        2
 90
        0
290
     1
290
     1
290
     1
290
     1
 90
-2147483648
330
100FE
290
     0
330
0
330
0
360
0
 90
        3
  0
ACDBASSOCVERTEXACTIONPARAM
  5
10105
330
10103
100
AcDbAssocActionParam
 90
        1
 90
        0
  1
BaseNormal
100
AcDbAssocSingleDependencyActionParam
 90
        0
330
0
100
AcDbAssocVertexActionParam
 90
        0
 10
0.0
 20
0.0
 30
1.0
  0
ACDBASSOCVERTEXACTIONPARAM
  5
10106
330
10103
100
AcDbAssocActionParam
 90
        1
 90
        0
  1
Origin
100
AcDbAssocSingleDependencyActionParam
 90
        0
330
0
100
AcDbAssocVertexActionParam
 90
        0
 10
0.0
 20
0.0
 30
0.0
  0
ACDBASSOCVERTEXACTIONPARAM
  5
1010A
330
10103
100
AcDbAssocActionParam
 90
        1
 90
        0
  1
basePoint
100
AcDbAssocSingleDependencyActionParam
 90
        0
330
0
100
AcDbAssocVertexActionParam
 90
        0
 10
0.0
 20
0.0
 30
0.0
  0
ACDBASSOCARRAYACTIONBODY
  5
10125
330
10124
100
AcDbAssocActionBody
 90
        2
100
AcDbAssocArrayActionBody
 90
        1
  1
AcDbAssocArrayRectangularParameters
 90
        0
 90
        6
  1
AcDbAssocArrayItem
100
AcDbAssocArrayItem
 90
        0
 90
        0
 90
        0
 90
        0
 90
        8
 11
0.0
 21
0.0
 31
0.0
330
1011D
100
AcDbAssocArrayItem
 90
        0
 90
        1
 90
        0
 90
        0
 90
        8
 11
42.82742371009876
 21
0.0
 31
0.0
330
1011E
100
AcDbAssocArrayItem
 90
        0
 90
        2
 90
        0
 90
        0
 90
        8
 11
85.65484742019753
 21
0.0
 31
0.0
330
1011F
100
AcDbAssocArrayItem
 90
        0
 90
        3
 90
        0
 90
        0
 90
        8
 11
128.4822711302963
 21
0.0
 31
0.0
330
10120
100
AcDbAssocArrayItem
 90
        0
 90
        4
 90
        0
 90
        0
 90
        8
 11
171.309694840395
 21
0.0
 31
0.0
330
10121
100
AcDbAssocArrayItem
 90
        0
 90
        5
 90
        0
 90
        0
 90
        8
 11
214.1371185504938
 21
0.0
 31
0.0
330
10122
 40
1.0
 40
0.0
 40
0.0
 40
-19.94417791865103
 40
0.0
 40
1.0
 40
0.0
 40
64.71390539517861
 40
0.0
 40
0.0
 40
1.0
 40
0.0
 40
0.0
 40
0.0
 40
0.0
 40
1.0
  0
ACDBASSOCDEPENDENCY
  5
10126
330
10124
100
AcDbAssocDependency
 90
        2
 90
        0
290
     0
290
     1
290
     1
290
     1
 90
        0
330
1011B
290
     0
330
0
330
0
360
0
 90
        1
  0
ACDBASSOCDEPENDENCY
  5
10127
330
10124
100
AcDbAssocDependency
 90
        2
 90
        0
290
     1
290
     0
290
     1
290
     1
 90
        0
330
10113
290
     0
330
0
330
0
360
0
 90
        2
  0
ACDBASSOCDEPENDENCY
  5
10128
330
10124
100
AcDbAssocDependency
 90
        2
 90
        0
290
     1
290
     1
290
     1
290
     1
 90
-2147483648
330
10112
290
     0
330
0
330
0
360
0
 90
        3
  0
ACDBASSOCVERTEXACTIONPARAM
  5
10129
330
10124
100
AcDbAssocActionParam
 90
        1
 90
        0
  1
BaseNormal
100
AcDbAssocSingleDependencyActionParam
 90
        0
330
0
100
AcDbAssocVertexActionParam
 90
        0
 10
0.0
 20
0.0
 30
1.0
  0
ACDBASSOCVERTEXACTIONPARAM
  5
1012A
330
10124
100
AcDbAssocActionParam
 90
        1
 90
        0
  1
Origin
100
AcDbAssocSingleDependencyActionParam
 90
        0
330
0
100
AcDbAssocVertexActionParam
 90
        0
 10
0.0
 20
0.0
 30
0.0
  0
ACDBASSOCVERTEXACTIONPARAM
  5
1012B
330
10124
100
AcDbAssocActionParam
 90
        1
 90
        0
  1
basePoint
100
AcDbAssocSingleDependencyActionParam
 90
        0
330
0
100
AcDbAssocVertexActionParam
 90
        0
 10
0.0
 20
0.0
 30
0.0
  0
ACDBASSOCARRAYACTIONBODY
  5
10162
330
10161
100
AcDbAssocActionBody
 90
        2
100
AcDbAssocArrayActionBody
 90
        1
  1
AcDbAssocArrayRectangularParameters
 90
        0
 90
        6
  1
AcDbAssocArrayItem
100
AcDbAssocArrayItem
 90
        0
 90
        0
 90
        0
 90
        0
 90
        8
 11
0.0
 21
0.0
 31
0.0
330
1015A
100
AcDbAssocArrayItem
 90
        0
 90
        1
 90
        0
 90
        0
 90
        8
 11
42.71918650631437
 21
0.0
 31
0.0
330
1015B
100
AcDbAssocArrayItem
 90
        0
 90
        2
 90
        0
 90
        0
 90
        8
 11
85.43837301262874
 21
0.0
 31
0.0
330
1015C
100
AcDbAssocArrayItem
 90
        0
 90
        3
 90
        0
 90
        0
 90
        8
 11
128.1575595189431
 21
0.0
 31
0.0
330
1015D
100
AcDbAssocArrayItem
 90
        0
 90
        4
 90
        0
 90
        0
 90
        8
 11
170.8767460252575
 21
0.0
 31
0.0
330
1015E
100
AcDbAssocArrayItem
 90
        0
 90
        5
 90
        0
 90
        0
 90
        8
 11
213.5959325315718
 21
0.0
 31
0.0
330
1015F
 40
1.0
 40
0.0
 40
0.0
 40
-25.0
 40
0.0
 40
1.0
 40
0.0
 40
-86.60855880795862
 40
0.0
 40
0.0
 40
1.0
 40
0.0
 40
0.0
 40
0.0
 40
0.0
 40
1.0
  0
ACDBASSOCDEPENDENCY
  5
10163
330
10161
100
AcDbAssocDependency
 90
        2
 90
        0
290
     0
290
     1
290
     1
290
     1
 90
        0
330
10158
290
     0
330
0
330
0
360
0
 90
        1
  0
ACDBASSOCDEPENDENCY
  5
10164
330
10161
100
AcDbAssocDependency
 90
        2
 90
        0
290
     1
290
     0
290
     1
290
     1
 90
        0
330
10152
290
     0
330
0
330
0
360
0
 90
        2
  0
ACDBASSOCDEPENDENCY
  5
10165
330
10161
100
AcDbAssocDependency
 90
        2
 90
        0
290
     1
290
     1
290
     1
290
     1
 90
-2147483648
330
1014E
290
     0
330
0
330
0
360
0
 90
        3
  0
ACDBASSOCVERTEXACTIONPARAM
  5
10166
330
10161
100
AcDbAssocActionParam
 90
        1
 90
        0
  1
BaseNormal
100
AcDbAssocSingleDependencyActionParam
 90
        0
330
0
100
AcDbAssocVertexActionParam
 90
        0
 10
0.0
 20
0.0
 30
1.0
  0
ACDBASSOCVERTEXACTIONPARAM
  5
10167
330
10161
100
AcDbAssocActionParam
 90
        1
 90
        0
  1
Origin
100
AcDbAssocSingleDependencyActionParam
 90
        0
330
0
100
AcDbAssocVertexActionParam
 90
        0
 10
0.0
 20
0.0
 30
0.0
  0
ACDBASSOCVERTEXACTIONPARAM
  5
10168
330
10161
100
AcDbAssocActionParam
 90
        1
 90
        0
  1
basePoint
100
AcDbAssocSingleDependencyActionParam
 90
        0
330
0
100
AcDbAssocVertexActionParam
 90
        0
 10
0.0
 20
0.0
 30
0.0
  0
ACDBASSOCARRAYACTIONBODY
  5
10177
330
10176
100
AcDbAssocActionBody
 90
        2
100
AcDbAssocArrayActionBody
 90
        1
  1
AcDbAssocArrayRectangularParameters
 90
        0
 90
        6
  1
AcDbAssocArrayItem
100
AcDbAssocArrayItem
 90
        0
 90
        0
 90
        0
 90
        0
 90
        8
 11
0.0
 21
0.0
 31
0.0
330
1016F
100
AcDbAssocArrayItem
 90
        0
 90
        1
 90
        0
 90
        0
 90
        8
 11
42.71918650631437
 21
0.0
 31
0.0
330
10170
100
AcDbAssocArrayItem
 90
        0
 90
        2
 90
        0
 90
        0
 90
        8
 11
85.43837301262874
 21
0.0
 31
0.0
330
10171
100
AcDbAssocArrayItem
 90
        0
 90
        3
 90
        0
 90
        0
 90
        8
 11
128.1575595189431
 21
0.0
 31
0.0
330
10172
100
AcDbAssocArrayItem
 90
        0
 90
        4
 90
        0
 90
        0
 90
        8
 11
170.8767460252575
 21
0.0
 31
0.0
330
10173
100
AcDbAssocArrayItem
 90
        0
 90
        5
 90
        0
 90
        0
 90
        8
 11
213.5959325315718
 21
0.0
 31
0.0
330
10174
 40
1.0
 40
0.0
 40
0.0
 40
-25.83318645775808
 40
0.0
 40
1.0
 40
0.0
 40
-32.06581431664279
 40
0.0
 40
0.0
 40
1.0
 40
0.0
 40
0.0
 40
0.0
 40
0.0
 40
1.0
  0
ACDBASSOCDEPENDENCY
  5
10178
330
10176
100
AcDbAssocDependency
 90
        2
 90
        0
290
     0
290
     1
290
     1
290
     1
 90
        0
330
1016D
290
     0
330
0
330
0
360
0
 90
        1
  0
ACDBASSOCDEPENDENCY
  5
10179
330
10176
100
AcDbAssocDependency
 90
        2
 90
        0
290
     1
290
     0
290
     1
290
     1
 90
        0
330
10169
290
     0
330
0
330
0
360
0
 90
        2
  0
ACDBASSOCDEPENDENCY
  5
1017A
330
10176
100
AcDbAssocDependency
 90
        2
 90
        0
290
     1
290
     1
290
     1
290
     1
 90
-2147483648
330
1014F
290
     0
330
0
330
0
360
0
 90
        3
  0
ACDBASSOCVERTEXACTIONPARAM
  5
1017B
330
10176
100
AcDbAssocActionParam
 90
        1
 90
        0
  1
BaseNormal
100
AcDbAssocSingleDependencyActionParam
 90
        0
330
0
100
AcDbAssocVertexActionParam
 90
        0
 10
0.0
 20
0.0
 30
1.0
  0
ACDBASSOCVERTEXACTIONPARAM
  5
1017C
330
10176
100
AcDbAssocActionParam
 90
        1
 90
        0
  1
Origin
100
AcDbAssocSingleDependencyActionParam
 90
        0
330
0
100
AcDbAssocVertexActionParam
 90
        0
 10
0.0
 20
0.0
 30
0.0
  0
ACDBASSOCVERTEXACTIONPARAM
  5
1017D
330
10176
100
AcDbAssocActionParam
 90
        1
 90
        0
  1
basePoint
100
AcDbAssocSingleDependencyActionParam
 90
        0
330
0
100
AcDbAssocVertexActionParam
 90
        0
 10
0.0
 20
0.0
 30
0.0
  0
ACDBASSOCARRAYACTIONBODY
  5
1018E
330
1018D
100
AcDbAssocActionBody
 90
        2
100
AcDbAssocArrayActionBody
 90
        1
  1
AcDbAssocArrayRectangularParameters
 90
        0
 90
        6
  1
AcDbAssocArrayItem
100
AcDbAssocArrayItem
 90
        0
 90
        0
 90
        0
 90
        0
 90
        8
 11
0.0
 21
0.0
 31
0.0
330
10186
100
AcDbAssocArrayItem
 90
        0
 90
        1
 90
        0
 90
        0
 90
        8
 11
42.82742371009876
 21
0.0
 31
0.0
330
10187
100
AcDbAssocArrayItem
 90
        0
 90
        2
 90
        0
 90
        0
 90
        8
 11
85.65484742019753
 21
0.0
 31
0.0
330
10188
100
AcDbAssocArrayItem
 90
        0
 90
        3
 90
        0
 90
        0
 90
        8
 11
128.4822711302963
 21
0.0
 31
0.0
330
10189
100
AcDbAssocArrayItem
 90
        0
 90
        4
 90
        0
 90
        0
 90
        8
 11
171.309694840395
 21
0.0
 31
0.0
330
1018A
100
AcDbAssocArrayItem
 90
        0
 90
        5
 90
        0
 90
        0
 90
        8
 11
214.1371185504938
 21
0.0
 31
0.0
330
1018B
 40
1.0
 40
0.0
 40
0.0
 40
-19.42232513909575
 40
0.0
 40
1.0
 40
0.0
 40
-106.5997458969514
 40
0.0
 40
0.0
 40
1.0
 40
0.0
 40
0.0
 40
0.0
 40
0.0
 40
1.0
  0
ACDBASSOCDEPENDENCY
  5
1018F
330
1018D
100
AcDbAssocDependency
 90
        2
 90
        0
290
     0
290
     1
290
     1
290
     1
 90
        0
330
10184
290
     0
330
0
330
0
360
0
 90
        1
  0
ACDBASSOCDEPENDENCY
  5
10190
330
1018D
100
AcDbAssocDependency
 90
        2
 90
        0
290
     1
290
     0
290
     1
290
     1
 90
        0
330
1017E
290
     0
330
0
330
0
360
0
 90
        2
  0
ACDBASSOCDEPENDENCY
  5
10191
330
1018D
100
AcDbAssocDependency
 90
        2
 90
        0
290
     1
290
     1
290
     1
290
     1
 90
-2147483648
330
10150
290
     0
330
0
330
0
360
0
 90
        3
  0
ACDBASSOCVERTEXACTIONPARAM
  5
10192
330
1018D
100
AcDbAssocActionParam
 90
        1
 90
        0
  1
BaseNormal
100
AcDbAssocSingleDependencyActionParam
 90
        0
330
0
100
AcDbAssocVertexActionParam
 90
        0
 10
0.0
 20
0.0
 30
1.0
  0
ACDBASSOCVERTEXACTIONPARAM
  5
10193
330
1018D
100
AcDbAssocActionParam
 90
        1
 90
        0
  1
Origin
100
AcDbAssocSingleDependencyActionParam
 90
        0
330
0
100
AcDbAssocVertexActionParam
 90
        0
 10
0.0
 20
0.0
 30
0.0
  0
ACDBASSOCVERTEXACTIONPARAM
  5
10194
330
1018D
100
AcDbAssocActionParam
 90
        1
 90
        0
  1
basePoint
100
AcDbAssocSingleDependencyActionParam
 90
        0
330
0
100
AcDbAssocVertexActionParam
 90
        0
 10
0.0
 20
0.0
 30
0.0
  0
ACDBASSOCARRAYACTIONBODY
  5
101A5
330
101A4
100
AcDbAssocActionBody
 90
        2
100
AcDbAssocArrayActionBody
 90
        1
  1
AcDbAssocArrayRectangularParameters
 90
        0
 90
        6
  1
AcDbAssocArrayItem
100
AcDbAssocArrayItem
 90
        0
 90
        0
 90
        0
 90
        0
 90
        8
 11
0.0
 21
0.0
 31
0.0
330
1019D
100
AcDbAssocArrayItem
 90
        0
 90
        1
 90
        0
 90
        0
 90
        8
 11
42.82742371009876
 21
0.0
 31
0.0
330
1019E
100
AcDbAssocArrayItem
 90
        0
 90
        2
 90
        0
 90
        0
 90
        8
 11
85.65484742019753
 21
0.0
 31
0.0
330
1019F
100
AcDbAssocArrayItem
 90
        0
 90
        3
 90
        0
 90
        0
 90
        8
 11
128.4822711302963
 21
0.0
 31
0.0
330
101A0
100
AcDbAssocArrayItem
 90
        0
 90
        4
 90
        0
 90
        0
 90
        8
 11
171.309694840395
 21
0.0
 31
0.0
330
101A1
100
AcDbAssocArrayItem
 90
        0
 90
        5
 90
        0
 90
        0
 90
        8
 11
214.1371185504938
 21
0.0
 31
0.0
330
101A2
 40
1.0
 40
0.0
 40
0.0
 40
-19.94417791865103
 40
0.0
 40
1.0
 40
0.0
 40
-50.23256486230284
 40
0.0
 40
0.0
 40
1.0
 40
0.0
 40
0.0
 40
0.0
 40
0.0
 40
1.0
  0
ACDBASSOCDEPENDENCY
  5
101A6
330
101A4
100
AcDbAssocDependency
 90
        2
 90
        0
290
     0
290
     1
290
     1
290
     1
 90
        0
330
1019B
290
     0
330
0
330
0
360
0
 90
        1
  0
ACDBASSOCDEPENDENCY
  5
101A7
330
101A4
100
AcDbAssocDependency
 90
        2
 90
        0
290
     1
290
     0
290
     1
290
     1
 90
        0
330
10195
290
     0
330
0
330
0
360
0
 90
        2
  0
ACDBASSOCDEPENDENCY
  5
101A8
330
101A4
100
AcDbAssocDependency
 90
        2
 90
        0
290
     1
290
     1
290
     1
290
     1
 90
-2147483648
330
10151
290
     0
330
0
330
0
360
0
 90
        3
  0
ACDBASSOCVERTEXACTIONPARAM
  5
101A9
330
101A4
100
AcDbAssocActionParam
 90
        1
 90
        0
  1
BaseNormal
100
AcDbAssocSingleDependencyActionParam
 90
        0
330
0
100
AcDbAssocVertexActionParam
 90
        0
 10
0.0
 20
0.0
 30
1.0
  0
ACDBASSOCVERTEXACTIONPARAM
  5
101AA
330
101A4
100
AcDbAssocActionParam
 90
        1
 90
        0
  1
Origin
100
AcDbAssocSingleDependencyActionParam
 90
        0
330
0
100
AcDbAssocVertexActionParam
 90
        0
 10
0.0
 20
0.0
 30
0.0
  0
ACDBASSOCVERTEXACTIONPARAM
  5
101AB
330
101A4
100
AcDbAssocActionParam
 90
        1
 90
        0
  1
basePoint
100
AcDbAssocSingleDependencyActionParam
 90
        0
330
0
100
AcDbAssocVertexActionParam
 90
        0
 10
0.0
 20
0.0
 30
0.0
  0
ACDBASSOCARRAYACTIONBODY
  5
101D7
330
101D6
100
AcDbAssocActionBody
 90
        2
100
AcDbAssocArrayActionBody
 90
        1
  1
AcDbAssocArrayRectangularParameters
 90
        0
 90
        6
  1
AcDbAssocArrayItem
100
AcDbAssocArrayItem
 90
        0
 90
        0
 90
        0
 90
        0
 90
        8
 11
0.0
 21
0.0
 31
0.0
330
101CF
100
AcDbAssocArrayItem
 90
        0
 90
        1
 90
        0
 90
        0
 90
        8
 11
42.71918650631437
 21
0.0
 31
0.0
330
101D0
100
AcDbAssocArrayItem
 90
        0
 90
        2
 90
        0
 90
        0
 90
        8
 11
85.43837301262874
 21
0.0
 31
0.0
330
101D1
100
AcDbAssocArrayItem
 90
        0
 90
        3
 90
        0
 90
        0
 90
        8
 11
128.1575595189431
 21
0.0
 31
0.0
330
101D2
100
AcDbAssocArrayItem
 90
        0
 90
        4
 90
        0
 90
        0
 90
        8
 11
170.8767460252575
 21
0.0
 31
0.0
330
101D3
100
AcDbAssocArrayItem
 90
        0
 90
        5
 90
        0
 90
        0
 90
        8
 11
213.5959325315718
 21
0.0
 31
0.0
330
101D4
 40
1.0
 40
0.0
 40
0.0
 40
-25.83318645775808
 40
0.0
 40
1.0
 40
0.0
 40
-142.290905308068
 40
0.0
 40
0.0
 40
1.0
 40
0.0
 40
0.0
 40
0.0
 40
0.0
 40
1.0
  0
ACDBASSOCDEPENDENCY
  5
101D8
330
101D6
100
AcDbAssocDependency
 90
        2
 90
        0
290
     0
290
     1
290
     1
290
     1
 90
        0
330
101CD
290
     0
330
0
330
0
360
0
 90
        1
  0
ACDBASSOCDEPENDENCY
  5
101D9
330
101D6
100
AcDbAssocDependency
 90
        2
 90
        0
290
     1
290
     0
290
     1
290
     1
 90
        0
330
101C9
290
     0
330
0
330
0
360
0
 90
        2
  0
ACDBASSOCDEPENDENCY
  5
101DA
330
101D6
100
AcDbAssocDependency
 90
        2
 90
        0
290
     1
290
     1
290
     1
290
     1
 90
-2147483648
330
101AF
290
     0
330
0
330
0
360
0
 90
        3
  0
ACDBASSOCVERTEXACTIONPARAM
  5
101DB
330
101D6
100
AcDbAssocActionParam
 90
        1
 90
        0
  1
BaseNormal
100
AcDbAssocSingleDependencyActionParam
 90
        0
330
0
100
AcDbAssocVertexActionParam
 90
        0
 10
0.0
 20
0.0
 30
1.0
  0
ACDBASSOCVERTEXACTIONPARAM
  5
101DC
330
101D6
100
AcDbAssocActionParam
 90
        1
 90
        0
  1
Origin
100
AcDbAssocSingleDependencyActionParam
 90
        0
330
0
100
AcDbAssocVertexActionParam
 90
        0
 10
0.0
 20
0.0
 30
0.0
  0
ACDBASSOCVERTEXACTIONPARAM
  5
101DD
330
101D6
100
AcDbAssocActionParam
 90
        1
 90
        0
  1
basePoint
100
AcDbAssocSingleDependencyActionParam
 90
        0
330
0
100
AcDbAssocVertexActionParam
 90
        0
 10
0.0
 20
0.0
 30
0.0
  0
ACDBASSOCARRAYACTIONBODY
  5
10205
330
10204
100
AcDbAssocActionBody
 90
        2
100
AcDbAssocArrayActionBody
 90
        1
  1
AcDbAssocArrayRectangularParameters
 90
        0
 90
        6
  1
AcDbAssocArrayItem
100
AcDbAssocArrayItem
 90
        0
 90
        0
 90
        0
 90
        0
 90
        8
 11
0.0
 21
0.0
 31
0.0
330
101FD
100
AcDbAssocArrayItem
 90
        0
 90
        1
 90
        0
 90
        0
 90
        8
 11
42.82742371009876
 21
0.0
 31
0.0
330
101FE
100
AcDbAssocArrayItem
 90
        0
 90
        2
 90
        0
 90
        0
 90
        8
 11
85.65484742019753
 21
0.0
 31
0.0
330
101FF
100
AcDbAssocArrayItem
 90
        0
 90
        3
 90
        0
 90
        0
 90
        8
 11
128.4822711302963
 21
0.0
 31
0.0
330
10200
100
AcDbAssocArrayItem
 90
        0
 90
        4
 90
        0
 90
        0
 90
        8
 11
171.309694840395
 21
0.0
 31
0.0
330
10201
100
AcDbAssocArrayItem
 90
        0
 90
        5
 90
        0
 90
        0
 90
        8
 11
214.1371185504938
 21
0.0
 31
0.0
330
10202
 40
1.0
 40
0.0
 40
0.0
 40
-19.94417791865103
 40
0.0
 40
1.0
 40
0.0
 40
-160.457655853728
 40
0.0
 40
0.0
 40
1.0
 40
0.0
 40
0.0
 40
0.0
 40
0.0
 40
1.0
  0
ACDBASSOCDEPENDENCY
  5
10206
330
10204
100
AcDbAssocDependency
 90
        2
 90
        0
290
     0
290
     1
290
     1
290
     1
 90
        0
330
101FB
290
     0
330
0
330
0
360
0
 90
        1
  0
ACDBASSOCDEPENDENCY
  5
10207
330
10204
100
AcDbAssocDependency
 90
        2
 90
        0
290
     1
290
     0
290
     1
290
     1
 90
        0
330
101F5
290
     0
330
0
330
0
360
0
 90
        2
  0
ACDBASSOCDEPENDENCY
  5
10208
330
10204
100
AcDbAssocDependency
 90
        2
 90
        0
290
     1
290
     1
290
     1
290
     1
 90
-2147483648
330
101B1
290
     0
330
0
330
0
360
0
 90
        3
  0
ACDBASSOCVERTEXACTIONPARAM
  5
10209
330
10204
100
AcDbAssocActionParam
 90
        1
 90
        0
  1
BaseNormal
100
AcDbAssocSingleDependencyActionParam
 90
        0
330
0
100
AcDbAssocVertexActionParam
 90
        0
 10
0.0
 20
0.0
 30
1.0
  0
ACDBASSOCVERTEXACTIONPARAM
  5
1020A
330
10204
100
AcDbAssocActionParam
 90
        1
 90
        0
  1
Origin
100
AcDbAssocSingleDependencyActionParam
 90
        0
330
0
100
AcDbAssocVertexActionParam
 90
        0
 10
0.0
 20
0.0
 30
0.0
  0
ACDBASSOCVERTEXACTIONPARAM
  5
1020B
330
10204
100
AcDbAssocActionParam
 90
        1
 90
        0
  1
basePoint
100
AcDbAssocSingleDependencyActionParam
 90
        0
330
0
100
AcDbAssocVertexActionParam
 90
        0
 10
0.0
 20
0.0
 30
0.0
  0
ACDBASSOCARRAYACTIONBODY
  5
10228
330
10227
100
AcDbAssocActionBody
 90
        2
100
AcDbAssocArrayActionBody
 90
        1
  1
AcDbAssocArrayRectangularParameters
 90
        0
 90
        6
  1
AcDbAssocArrayItem
100
AcDbAssocArrayItem
 90
        0
 90
        0
 90
        0
 90
        0
 90
        8
 11
0.0
 21
0.0
 31
0.0
330
10220
100
AcDbAssocArrayItem
 90
        0
 90
        1
 90
        0
 90
        0
 90
        8
 11
42.71918650631437
 21
0.0
 31
0.0
330
10221
100
AcDbAssocArrayItem
 90
        0
 90
        2
 90
        0
 90
        0
 90
        8
 11
85.43837301262874
 21
0.0
 31
0.0
330
10222
100
AcDbAssocArrayItem
 90
        0
 90
        3
 90
        0
 90
        0
 90
        8
 11
128.1575595189431
 21
0.0
 31
0.0
330
10223
100
AcDbAssocArrayItem
 90
        0
 90
        4
 90
        0
 90
        0
 90
        8
 11
170.8767460252575
 21
0.0
 31
0.0
330
10224
100
AcDbAssocArrayItem
 90
        0
 90
        5
 90
        0
 90
        0
 90
        8
 11
213.5959325315718
 21
0.0
 31
0.0
330
10225
 40
1.0
 40
0.0
 40
0.0
 40
234.0425439541823
 40
0.0
 40
1.0
 40
0.0
 40
25.0
 40
0.0
 40
0.0
 40
1.0
 40
0.0
 40
0.0
 40
0.0
 40
0.0
 40
1.0
  0
ACDBASSOCDEPENDENCY
  5
10229
330
10227
100
AcDbAssocDependency
 90
        2
 90
        0
290
     0
290
     1
290
     1
290
     1
 90
        0
330
1021E
290
     0
330
0
330
0
360
0
 90
        1
  0
ACDBASSOCDEPENDENCY
  5
1022A
330
10227
100
AcDbAssocDependency
 90
        2
 90
        0
290
     1
290
     0
290
     1
290
     1
 90
        0
330
10218
290
     0
330
0
330
0
360
0
 90
        2
  0
ACDBASSOCDEPENDENCY
  5
1022B
330
10227
100
AcDbAssocDependency
 90
        2
 90
        0
290
     1
290
     1
290
     1
290
     1
 90
-2147483648
330
1020E
290
     0
330
0
330
0
360
0
 90
        3
  0
ACDBASSOCVERTEXACTIONPARAM
  5
1022C
330
10227
100
AcDbAssocActionParam
 90
        1
 90
        0
  1
BaseNormal
100
AcDbAssocSingleDependencyActionParam
 90
        0
330
0
100
AcDbAssocVertexActionParam
 90
        0
 10
0.0
 20
0.0
 30
1.0
  0
ACDBASSOCVERTEXACTIONPARAM
  5
1022D
330
10227
100
AcDbAssocActionParam
 90
        1
 90
        0
  1
Origin
100
AcDbAssocSingleDependencyActionParam
 90
        0
330
0
100
AcDbAssocVertexActionParam
 90
        0
 10
0.0
 20
0.0
 30
0.0
  0
ACDBASSOCVERTEXACTIONPARAM
  5
1022E
330
10227
100
AcDbAssocActionParam
 90
        1
 90
        0
  1
basePoint
100
AcDbAssocSingleDependencyActionParam
 90
        0
330
0
100
AcDbAssocVertexActionParam
 90
        0
 10
0.0
 20
0.0
 30
0.0
  0
ACDBASSOCARRAYACTIONBODY
  5
1023D
330
1023C
100
AcDbAssocActionBody
 90
        2
100
AcDbAssocArrayActionBody
 90
        1
  1
AcDbAssocArrayRectangularParameters
 90
        0
 90
        6
  1
AcDbAssocArrayItem
100
AcDbAssocArrayItem
 90
        0
 90
        0
 90
        0
 90
        0
 90
        8
 11
0.0
 21
0.0
 31
0.0
330
10235
100
AcDbAssocArrayItem
 90
        0
 90
        1
 90
        0
 90
        0
 90
        8
 11
42.71918650631437
 21
0.0
 31
0.0
330
10236
100
AcDbAssocArrayItem
 90
        0
 90
        2
 90
        0
 90
        0
 90
        8
 11
85.43837301262874
 21
0.0
 31
0.0
330
10237
100
AcDbAssocArrayItem
 90
        0
 90
        3
 90
        0
 90
        0
 90
        8
 11
128.1575595189431
 21
0.0
 31
0.0
330
10238
100
AcDbAssocArrayItem
 90
        0
 90
        4
 90
        0
 90
        0
 90
        8
 11
170.8767460252575
 21
0.0
 31
0.0
330
10239
100
AcDbAssocArrayItem
 90
        0
 90
        5
 90
        0
 90
        0
 90
        8
 11
213.5959325315718
 21
0.0
 31
0.0
330
1023A
 40
1.0
 40
0.0
 40
0.0
 40
233.2093574964242
 40
0.0
 40
1.0
 40
0.0
 40
82.88065594083866
 40
0.0
 40
0.0
 40
1.0
 40
0.0
 40
0.0
 40
0.0
 40
0.0
 40
1.0
  0
ACDBASSOCDEPENDENCY
  5
1023E
330
1023C
100
AcDbAssocDependency
 90
        2
 90
        0
290
     0
290
     1
290
     1
290
     1
 90
        0
330
10233
290
     0
330
0
330
0
360
0
 90
        1
  0
ACDBASSOCDEPENDENCY
  5
1023F
330
1023C
100
AcDbAssocDependency
 90
        2
 90
        0
290
     1
290
     0
290
     1
290
     1
 90
        0
330
1022F
290
     0
330
0
330
0
360
0
 90
        2
  0
ACDBASSOCDEPENDENCY
  5
10240
330
1023C
100
AcDbAssocDependency
 90
        2
 90
        0
290
     1
290
     1
290
     1
290
     1
 90
-2147483648
330
1020F
290
     0
330
0
330
0
360
0
 90
        3
  0
ACDBASSOCVERTEXACTIONPARAM
  5
10241
330
1023C
100
AcDbAssocActionParam
 90
        1
 90
        0
  1
BaseNormal
100
AcDbAssocSingleDependencyActionParam
 90
        0
330
0
100
AcDbAssocVertexActionParam
 90
        0
 10
0.0
 20
0.0
 30
1.0
  0
ACDBASSOCVERTEXACTIONPARAM
  5
10242
330
1023C
100
AcDbAssocActionParam
 90
        1
 90
        0
  1
Origin
100
AcDbAssocSingleDependencyActionParam
 90
        0
330
0
100
AcDbAssocVertexActionParam
 90
        0
 10
0.0
 20
0.0
 30
0.0
  0
ACDBASSOCVERTEXACTIONPARAM
  5
10243
330
1023C
100
AcDbAssocActionParam
 90
        1
 90
        0
  1
basePoint
100
AcDbAssocSingleDependencyActionParam
 90
        0
330
0
100
AcDbAssocVertexActionParam
 90
        0
 10
0.0
 20
0.0
 30
0.0
  0
ACDBASSOCARRAYACTIONBODY
  5
10254
330
10253
100
AcDbAssocActionBody
 90
        2
100
AcDbAssocArrayActionBody
 90
        1
  1
AcDbAssocArrayRectangularParameters
 90
        0
 90
        6
  1
AcDbAssocArrayItem
100
AcDbAssocArrayItem
 90
        0
 90
        0
 90
        0
 90
        0
 90
        8
 11
0.0
 21
0.0
 31
0.0
330
1024C
100
AcDbAssocArrayItem
 90
        0
 90
        1
 90
        0
 90
        0
 90
        8
 11
42.82742371009876
 21
0.0
 31
0.0
330
1024D
100
AcDbAssocArrayItem
 90
        0
 90
        2
 90
        0
 90
        0
 90
        8
 11
85.65484742019753
 21
0.0
 31
0.0
330
1024E
100
AcDbAssocArrayItem
 90
        0
 90
        3
 90
        0
 90
        0
 90
        8
 11
128.4822711302963
 21
0.0
 31
0.0
330
1024F
100
AcDbAssocArrayItem
 90
        0
 90
        4
 90
        0
 90
        0
 90
        8
 11
171.309694840395
 21
0.0
 31
0.0
330
10250
100
AcDbAssocArrayItem
 90
        0
 90
        5
 90
        0
 90
        0
 90
        8
 11
214.1371185504938
 21
0.0
 31
0.0
330
10251
 40
1.0
 40
0.0
 40
0.0
 40
239.6202188150865
 40
0.0
 40
1.0
 40
0.0
 40
5.008812911007138
 40
0.0
 40
0.0
 40
1.0
 40
0.0
 40
0.0
 40
0.0
 40
0.0
 40
1.0
  0
ACDBASSOCDEPENDENCY
  5
10255
330
10253
100
AcDbAssocDependency
 90
        2
 90
        0
290
     0
290
     1
290
     1
290
     1
 90
        0
330
1024A
290
     0
330
0
330
0
360
0
 90
        1
  0
ACDBASSOCDEPENDENCY
  5
10256
330
10253
100
AcDbAssocDependency
 90
        2
 90
        0
290
     1
290
     0
290
     1
290
     1
 90
        0
330
10244
290
     0
330
0
330
0
360
0
 90
        2
  0
ACDBASSOCDEPENDENCY
  5
10257
330
10253
100
AcDbAssocDependency
 90
        2
 90
        0
290
     1
290
     1
290
     1
290
     1
 90
-2147483648
330
10210
290
     0
330
0
330
0
360
0
 90
        3
  0
ACDBASSOCVERTEXACTIONPARAM
  5
10258
330
10253
100
AcDbAssocActionParam
 90
        1
 90
        0
  1
BaseNormal
100
AcDbAssocSingleDependencyActionParam
 90
        0
330
0
100
AcDbAssocVertexActionParam
 90
        0
 10
0.0
 20
0.0
 30
1.0
  0
ACDBASSOCVERTEXACTIONPARAM
  5
10259
330
10253
100
AcDbAssocActionParam
 90
        1
 90
        0
  1
Origin
100
AcDbAssocSingleDependencyActionParam
 90
        0
330
0
100
AcDbAssocVertexActionParam
 90
        0
 10
0.0
 20
0.0
 30
0.0
  0
ACDBASSOCVERTEXACTIONPARAM
  5
1025A
330
10253
100
AcDbAssocActionParam
 90
        1
 90
        0
  1
basePoint
100
AcDbAssocSingleDependencyActionParam
 90
        0
330
0
100
AcDbAssocVertexActionParam
 90
        0
 10
0.0
 20
0.0
 30
0.0
  0
ACDBASSOCARRAYACTIONBODY
  5
1026B
330
1026A
100
AcDbAssocActionBody
 90
        2
100
AcDbAssocArrayActionBody
 90
        1
  1
AcDbAssocArrayRectangularParameters
 90
        0
 90
        6
  1
AcDbAssocArrayItem
100
AcDbAssocArrayItem
 90
        0
 90
        0
 90
        0
 90
        0
 90
        8
 11
0.0
 21
0.0
 31
0.0
330
10263
100
AcDbAssocArrayItem
 90
        0
 90
        1
 90
        0
 90
        0
 90
        8
 11
42.82742371009876
 21
0.0
 31
0.0
330
10264
100
AcDbAssocArrayItem
 90
        0
 90
        2
 90
        0
 90
        0
 90
        8
 11
85.65484742019753
 21
0.0
 31
0.0
330
10265
100
AcDbAssocArrayItem
 90
        0
 90
        3
 90
        0
 90
        0
 90
        8
 11
128.4822711302963
 21
0.0
 31
0.0
330
10266
100
AcDbAssocArrayItem
 90
        0
 90
        4
 90
        0
 90
        0
 90
        8
 11
171.309694840395
 21
0.0
 31
0.0
330
10267
100
AcDbAssocArrayItem
 90
        0
 90
        5
 90
        0
 90
        0
 90
        8
 11
214.1371185504938
 21
0.0
 31
0.0
330
10268
 40
1.0
 40
0.0
 40
0.0
 40
239.0983660355312
 40
0.0
 40
1.0
 40
0.0
 40
64.71390539517861
 40
0.0
 40
0.0
 40
1.0
 40
0.0
 40
0.0
 40
0.0
 40
0.0
 40
1.0
  0
ACDBASSOCDEPENDENCY
  5
1026C
330
1026A
100
AcDbAssocDependency
 90
        2
 90
        0
290
     0
290
     1
290
     1
290
     1
 90
        0
330
10261
290
     0
330
0
330
0
360
0
 90
        1
  0
ACDBASSOCDEPENDENCY
  5
1026D
330
1026A
100
AcDbAssocDependency
 90
        2
 90
        0
290
     1
290
     0
290
     1
290
     1
 90
        0
330
1025B
290
     0
330
0
330
0
360
0
 90
        2
  0
ACDBASSOCDEPENDENCY
  5
1026E
330
1026A
100
AcDbAssocDependency
 90
        2
 90
        0
290
     1
290
     1
290
     1
290
     1
 90
-2147483648
330
10211
290
     0
330
0
330
0
360
0
 90
        3
  0
ACDBASSOCVERTEXACTIONPARAM
  5
1026F
330
1026A
100
AcDbAssocActionParam
 90
        1
 90
        0
  1
BaseNormal
100
AcDbAssocSingleDependencyActionParam
 90
        0
330
0
100
AcDbAssocVertexActionParam
 90
        0
 10
0.0
 20
0.0
 30
1.0
  0
ACDBASSOCVERTEXACTIONPARAM
  5
10270
330
1026A
100
AcDbAssocActionParam
 90
        1
 90
        0
  1
Origin
100
AcDbAssocSingleDependencyActionParam
 90
        0
330
0
100
AcDbAssocVertexActionParam
 90
        0
 10
0.0
 20
0.0
 30
0.0
  0
ACDBASSOCVERTEXACTIONPARAM
  5
10271
330
1026A
100
AcDbAssocActionParam
 90
        1
 90
        0
  1
basePoint
100
AcDbAssocSingleDependencyActionParam
 90
        0
330
0
100
AcDbAssocVertexActionParam
 90
        0
 10
0.0
 20
0.0
 30
0.0
  0
ACDBASSOCARRAYACTIONBODY
  5
10280
330
1027F
100
AcDbAssocActionBody
 90
        2
100
AcDbAssocArrayActionBody
 90
        1
  1
AcDbAssocArrayRectangularParameters
 90
        0
 90
        6
  1
AcDbAssocArrayItem
100
AcDbAssocArrayItem
 90
        0
 90
        0
 90
        0
 90
        0
 90
        8
 11
0.0
 21
0.0
 31
0.0
330
10278
100
AcDbAssocArrayItem
 90
        0
 90
        1
 90
        0
 90
        0
 90
        8
 11
42.71918650631437
 21
0.0
 31
0.0
330
10279
100
AcDbAssocArrayItem
 90
        0
 90
        2
 90
        0
 90
        0
 90
        8
 11
85.43837301262874
 21
0.0
 31
0.0
330
1027A
100
AcDbAssocArrayItem
 90
        0
 90
        3
 90
        0
 90
        0
 90
        8
 11
128.1575595189431
 21
0.0
 31
0.0
330
1027B
100
AcDbAssocArrayItem
 90
        0
 90
        4
 90
        0
 90
        0
 90
        8
 11
170.8767460252575
 21
0.0
 31
0.0
330
1027C
100
AcDbAssocArrayItem
 90
        0
 90
        5
 90
        0
 90
        0
 90
        8
 11
213.5959325315718
 21
0.0
 31
0.0
330
1027D
 40
1.0
 40
0.0
 40
0.0
 40
234.0425439541823
 40
0.0
 40
1.0
 40
0.0
 40
-86.60855880795862
 40
0.0
 40
0.0
 40
1.0
 40
0.0
 40
0.0
 40
0.0
 40
0.0
 40
1.0
  0
ACDBASSOCDEPENDENCY
  5
10281
330
1027F
100
AcDbAssocDependency
 90
        2
 90
        0
290
     0
290
     1
290
     1
290
     1
 90
        0
330
10276
290
     0
330
0
330
0
360
0
 90
        1
  0
ACDBASSOCDEPENDENCY
  5
10282
330
1027F
100
AcDbAssocDependency
 90
        2
 90
        0
290
     1
290
     0
290
     1
290
     1
 90
        0
330
10272
290
     0
330
0
330
0
360
0
 90
        2
  0
ACDBASSOCDEPENDENCY
  5
10283
330
1027F
100
AcDbAssocDependency
 90
        2
 90
        0
290
     1
290
     1
290
     1
290
     1
 90
-2147483648
330
10212
290
     0
330
0
330
0
360
0
 90
        3
  0
ACDBASSOCVERTEXACTIONPARAM
  5
10284
330
1027F
100
AcDbAssocActionParam
 90
        1
 90
        0
  1
BaseNormal
100
AcDbAssocSingleDependencyActionParam
 90
        0
330
0
100
AcDbAssocVertexActionParam
 90
        0
 10
0.0
 20
0.0
 30
1.0
  0
ACDBASSOCVERTEXACTIONPARAM
  5
10285
330
1027F
100
AcDbAssocActionParam
 90
        1
 90
        0
  1
Origin
100
AcDbAssocSingleDependencyActionParam
 90
        0
330
0
100
AcDbAssocVertexActionParam
 90
        0
 10
0.0
 20
0.0
 30
0.0
  0
ACDBASSOCVERTEXACTIONPARAM
  5
10286
330
1027F
100
AcDbAssocActionParam
 90
        1
 90
        0
  1
basePoint
100
AcDbAssocSingleDependencyActionParam
 90
        0
330
0
100
AcDbAssocVertexActionParam
 90
        0
 10
0.0
 20
0.0
 30
0.0
  0
ACDBASSOCARRAYACTIONBODY
  5
10295
330
10294
100
AcDbAssocActionBody
 90
        2
100
AcDbAssocArrayActionBody
 90
        1
  1
AcDbAssocArrayRectangularParameters
 90
        0
 90
        6
  1
AcDbAssocArrayItem
100
AcDbAssocArrayItem
 90
        0
 90
        0
 90
        0
 90
        0
 90
        8
 11
0.0
 21
0.0
 31
0.0
330
1028D
100
AcDbAssocArrayItem
 90
        0
 90
        1
 90
        0
 90
        0
 90
        8
 11
42.71918650631437
 21
0.0
 31
0.0
330
1028E
100
AcDbAssocArrayItem
 90
        0
 90
        2
 90
        0
 90
        0
 90
        8
 11
85.43837301262874
 21
0.0
 31
0.0
330
1028F
100
AcDbAssocArrayItem
 90
        0
 90
        3
 90
        0
 90
        0
 90
        8
 11
128.1575595189431
 21
0.0
 31
0.0
330
10290
100
AcDbAssocArrayItem
 90
        0
 90
        4
 90
        0
 90
        0
 90
        8
 11
170.8767460252575
 21
0.0
 31
0.0
330
10291
100
AcDbAssocArrayItem
 90
        0
 90
        5
 90
        0
 90
        0
 90
        8
 11
213.5959325315718
 21
0.0
 31
0.0
330
10292
 40
1.0
 40
0.0
 40
0.0
 40
233.2093574964242
 40
0.0
 40
1.0
 40
0.0
 40
-32.06581431664279
 40
0.0
 40
0.0
 40
1.0
 40
0.0
 40
0.0
 40
0.0
 40
0.0
 40
1.0
  0
ACDBASSOCDEPENDENCY
  5
10296
330
10294
100
AcDbAssocDependency
 90
        2
 90
        0
290
     0
290
     1
290
     1
290
     1
 90
        0
330
1028B
290
     0
330
0
330
0
360
0
 90
        1
  0
ACDBASSOCDEPENDENCY
  5
10297
330
10294
100
AcDbAssocDependency
 90
        2
 90
        0
290
     1
290
     0
290
     1
290
     1
 90
        0
330
10287
290
     0
330
0
330
0
360
0
 90
        2
  0
ACDBASSOCDEPENDENCY
  5
10298
330
10294
100
AcDbAssocDependency
 90
        2
 90
        0
290
     1
290
     1
290
     1
290
     1
 90
-2147483648
330
10213
290
     0
330
0
330
0
360
0
 90
        3
  0
ACDBASSOCVERTEXACTIONPARAM
  5
10299
330
10294
100
AcDbAssocActionParam
 90
        1
 90
        0
  1
BaseNormal
100
AcDbAssocSingleDependencyActionParam
 90
        0
330
0
100
AcDbAssocVertexActionParam
 90
        0
 10
0.0
 20
0.0
 30
1.0
  0
ACDBASSOCVERTEXACTIONPARAM
  5
1029A
330
10294
100
AcDbAssocActionParam
 90
        1
 90
        0
  1
Origin
100
AcDbAssocSingleDependencyActionParam
 90
        0
330
0
100
AcDbAssocVertexActionParam
 90
        0
 10
0.0
 20
0.0
 30
0.0
  0
ACDBASSOCVERTEXACTIONPARAM
  5
1029B
330
10294
100
AcDbAssocActionParam
 90
        1
 90
        0
  1
basePoint
100
AcDbAssocSingleDependencyActionParam
 90
        0
330
0
100
AcDbAssocVertexActionParam
 90
        0
 10
0.0
 20
0.0
 30
0.0
  0
ACDBASSOCARRAYACTIONBODY
  5
102AC
330
102AB
100
AcDbAssocActionBody
 90
        2
100
AcDbAssocArrayActionBody
 90
        1
  1
AcDbAssocArrayRectangularParameters
 90
        0
 90
        6
  1
AcDbAssocArrayItem
100
AcDbAssocArrayItem
 90
        0
 90
        0
 90
        0
 90
        0
 90
        8
 11
0.0
 21
0.0
 31
0.0
330
102A4
100
AcDbAssocArrayItem
 90
        0
 90
        1
 90
        0
 90
        0
 90
        8
 11
42.82742371009876
 21
0.0
 31
0.0
330
102A5
100
AcDbAssocArrayItem
 90
        0
 90
        2
 90
        0
 90
        0
 90
        8
 11
85.65484742019753
 21
0.0
 31
0.0
330
102A6
100
AcDbAssocArrayItem
 90
        0
 90
        3
 90
        0
 90
        0
 90
        8
 11
128.4822711302963
 21
0.0
 31
0.0
330
102A7
100
AcDbAssocArrayItem
 90
        0
 90
        4
 90
        0
 90
        0
 90
        8
 11
171.309694840395
 21
0.0
 31
0.0
330
102A8
100
AcDbAssocArrayItem
 90
        0
 90
        5
 90
        0
 90
        0
 90
        8
 11
214.1371185504938
 21
0.0
 31
0.0
330
102A9
 40
1.0
 40
0.0
 40
0.0
 40
239.6202188150865
 40
0.0
 40
1.0
 40
0.0
 40
-106.5997458969514
 40
0.0
 40
0.0
 40
1.0
 40
0.0
 40
0.0
 40
0.0
 40
0.0
 40
1.0
  0
ACDBASSOCDEPENDENCY
  5
102AD
330
102AB
100
AcDbAssocDependency
 90
        2
 90
        0
290
     0
290
     1
290
     1
290
     1
 90
        0
330
102A2
290
     0
330
0
330
0
360
0
 90
        1
  0
ACDBASSOCDEPENDENCY
  5
102AE
330
102AB
100
AcDbAssocDependency
 90
        2
 90
        0
290
     1
290
     0
290
     1
290
     1
 90
        0
330
1029C
290
     0
330
0
330
0
360
0
 90
        2
  0
ACDBASSOCDEPENDENCY
  5
102AF
330
102AB
100
AcDbAssocDependency
 90
        2
 90
        0
290
     1
290
     1
290
     1
290
     1
 90
-2147483648
330
10214
290
     0
330
0
330
0
360
0
 90
        3
  0
ACDBASSOCVERTEXACTIONPARAM
  5
102B0
330
102AB
100
AcDbAssocActionParam
 90
        1
 90
        0
  1
BaseNormal
100
AcDbAssocSingleDependencyActionParam
 90
        0
330
0
100
AcDbAssocVertexActionParam
 90
        0
 10
0.0
 20
0.0
 30
1.0
  0
ACDBASSOCVERTEXACTIONPARAM
  5
102B1
330
102AB
100
AcDbAssocActionParam
 90
        1
 90
        0
  1
Origin
100
AcDbAssocSingleDependencyActionParam
 90
        0
330
0
100
AcDbAssocVertexActionParam
 90
        0
 10
0.0
 20
0.0
 30
0.0
  0
ACDBASSOCVERTEXACTIONPARAM
  5
102B2
330
102AB
100
AcDbAssocActionParam
 90
        1
 90
        0
  1
basePoint
100
AcDbAssocSingleDependencyActionParam
 90
        0
330
0
100
AcDbAssocVertexActionParam
 90
        0
 10
0.0
 20
0.0
 30
0.0
  0
ACDBASSOCARRAYACTIONBODY
  5
102C3
330
102C2
100
AcDbAssocActionBody
 90
        2
100
AcDbAssocArrayActionBody
 90
        1
  1
AcDbAssocArrayRectangularParameters
 90
        0
 90
        6
  1
AcDbAssocArrayItem
100
AcDbAssocArrayItem
 90
        0
 90
        0
 90
        0
 90
        0
 90
        8
 11
0.0
 21
0.0
 31
0.0
330
102BB
100
AcDbAssocArrayItem
 90
        0
 90
        1
 90
        0
 90
        0
 90
        8
 11
42.82742371009876
 21
0.0
 31
0.0
330
102BC
100
AcDbAssocArrayItem
 90
        0
 90
        2
 90
        0
 90
        0
 90
        8
 11
85.65484742019753
 21
0.0
 31
0.0
330
102BD
100
AcDbAssocArrayItem
 90
        0
 90
        3
 90
        0
 90
        0
 90
        8
 11
128.4822711302963
 21
0.0
 31
0.0
330
102BE
100
AcDbAssocArrayItem
 90
        0
 90
        4
 90
        0
 90
        0
 90
        8
 11
171.309694840395
 21
0.0
 31
0.0
330
102BF
100
AcDbAssocArrayItem
 90
        0
 90
        5
 90
        0
 90
        0
 90
        8
 11
214.1371185504938
 21
0.0
 31
0.0
330
102C0
 40
1.0
 40
0.0
 40
0.0
 40
239.0983660355312
 40
0.0
 40
1.0
 40
0.0
 40
-50.23256486230284
 40
0.0
 40
0.0
 40
1.0
 40
0.0
 40
0.0
 40
0.0
 40
0.0
 40
1.0
  0
ACDBASSOCDEPENDENCY
  5
102C4
330
102C2
100
AcDbAssocDependency
 90
        2
 90
        0
290
     0
290
     1
290
     1
290
     1
 90
        0
330
102B9
290
     0
330
0
330
0
360
0
 90
        1
  0
ACDBASSOCDEPENDENCY
  5
102C5
330
102C2
100
AcDbAssocDependency
 90
        2
 90
        0
290
     1
290
     0
290
     1
290
     1
 90
        0
330
102B3
290
     0
330
0
330
0
360
0
 90
        2
  0
ACDBASSOCDEPENDENCY
  5
102C6
330
102C2
100
AcDbAssocDependency
 90
        2
 90
        0
290
     1
290
     1
290
     1
290
     1
 90
-2147483648
330
10215
290
     0
330
0
330
0
360
0
 90
        3
  0
ACDBASSOCVERTEXACTIONPARAM
  5
102C7
330
102C2
100
AcDbAssocActionParam
 90
        1
 90
        0
  1
BaseNormal
100
AcDbAssocSingleDependencyActionParam
 90
        0
330
0
100
AcDbAssocVertexActionParam
 90
        0
 10
0.0
 20
0.0
 30
1.0
  0
ACDBASSOCVERTEXACTIONPARAM
  5
102C8
330
102C2
100
AcDbAssocActionParam
 90
        1
 90
        0
  1
Origin
100
AcDbAssocSingleDependencyActionParam
 90
        0
330
0
100
AcDbAssocVertexActionParam
 90
        0
 10
0.0
 20
0.0
 30
0.0
  0
ACDBASSOCVERTEXACTIONPARAM
  5
102C9
330
102C2
100
AcDbAssocActionParam
 90
        1
 90
        0
  1
basePoint
100
AcDbAssocSingleDependencyActionParam
 90
        0
330
0
100
AcDbAssocVertexActionParam
 90
        0
 10
0.0
 20
0.0
 30
0.0
  0
ACDBASSOCARRAYACTIONBODY
  5
102D8
330
102D7
100
AcDbAssocActionBody
 90
        2
100
AcDbAssocArrayActionBody
 90
        1
  1
AcDbAssocArrayRectangularParameters
 90
        0
 90
        6
  1
AcDbAssocArrayItem
100
AcDbAssocArrayItem
 90
        0
 90
        0
 90
        0
 90
        0
 90
        8
 11
0.0
 21
0.0
 31
0.0
330
102D0
100
AcDbAssocArrayItem
 90
        0
 90
        1
 90
        0
 90
        0
 90
        8
 11
42.71918650631437
 21
0.0
 31
0.0
330
102D1
100
AcDbAssocArrayItem
 90
        0
 90
        2
 90
        0
 90
        0
 90
        8
 11
85.43837301262874
 21
0.0
 31
0.0
330
102D2
100
AcDbAssocArrayItem
 90
        0
 90
        3
 90
        0
 90
        0
 90
        8
 11
128.1575595189431
 21
0.0
 31
0.0
330
102D3
100
AcDbAssocArrayItem
 90
        0
 90
        4
 90
        0
 90
        0
 90
        8
 11
170.8767460252575
 21
0.0
 31
0.0
330
102D4
100
AcDbAssocArrayItem
 90
        0
 90
        5
 90
        0
 90
        0
 90
        8
 11
213.5959325315718
 21
0.0
 31
0.0
330
102D5
 40
1.0
 40
0.0
 40
0.0
 40
233.2093574964242
 40
0.0
 40
1.0
 40
0.0
 40
-142.290905308068
 40
0.0
 40
0.0
 40
1.0
 40
0.0
 40
0.0
 40
0.0
 40
0.0
 40
1.0
  0
ACDBASSOCDEPENDENCY
  5
102D9
330
102D7
100
AcDbAssocDependency
 90
        2
 90
        0
290
     0
290
     1
290
     1
290
     1
 90
        0
330
102CE
290
     0
330
0
330
0
360
0
 90
        1
  0
ACDBASSOCDEPENDENCY
  5
102DA
330
102D7
100
AcDbAssocDependency
 90
        2
 90
        0
290
     1
290
     0
290
     1
290
     1
 90
        0
330
102CA
290
     0
330
0
330
0
360
0
 90
        2
  0
ACDBASSOCDEPENDENCY
  5
102DB
330
102D7
100
AcDbAssocDependency
 90
        2
 90
        0
290
     1
290
     1
290
     1
290
     1
 90
-2147483648
330
10216
290
     0
330
0
330
0
360
0
 90
        3
  0
ACDBASSOCVERTEXACTIONPARAM
  5
102DC
330
102D7
100
AcDbAssocActionParam
 90
        1
 90
        0
  1
BaseNormal
100
AcDbAssocSingleDependencyActionParam
 90
        0
330
0
100
AcDbAssocVertexActionParam
 90
        0
 10
0.0
 20
0.0
 30
1.0
  0
ACDBASSOCVERTEXACTIONPARAM
  5
102DD
330
102D7
100
AcDbAssocActionParam
 90
        1
 90
        0
  1
Origin
100
AcDbAssocSingleDependencyActionParam
 90
        0
330
0
100
AcDbAssocVertexActionParam
 90
        0
 10
0.0
 20
0.0
 30
0.0
  0
ACDBASSOCVERTEXACTIONPARAM
  5
102DE
330
102D7
100
AcDbAssocActionParam
 90
        1
 90
        0
  1
basePoint
100
AcDbAssocSingleDependencyActionParam
 90
        0
330
0
100
AcDbAssocVertexActionParam
 90
        0
 10
0.0
 20
0.0
 30
0.0
  0
ACDBASSOCARRAYACTIONBODY
  5
102EF
330
102EE
100
AcDbAssocActionBody
 90
        2
100
AcDbAssocArrayActionBody
 90
        1
  1
AcDbAssocArrayRectangularParameters
 90
        0
 90
        6
  1
AcDbAssocArrayItem
100
AcDbAssocArrayItem
 90
        0
 90
        0
 90
        0
 90
        0
 90
        8
 11
0.0
 21
0.0
 31
0.0
330
102E7
100
AcDbAssocArrayItem
 90
        0
 90
        1
 90
        0
 90
        0
 90
        8
 11
42.82742371009876
 21
0.0
 31
0.0
330
102E8
100
AcDbAssocArrayItem
 90
        0
 90
        2
 90
        0
 90
        0
 90
        8
 11
85.65484742019753
 21
0.0
 31
0.0
330
102E9
100
AcDbAssocArrayItem
 90
        0
 90
        3
 90
        0
 90
        0
 90
        8
 11
128.4822711302963
 21
0.0
 31
0.0
330
102EA
100
AcDbAssocArrayItem
 90
        0
 90
        4
 90
        0
 90
        0
 90
        8
 11
171.309694840395
 21
0.0
 31
0.0
330
102EB
100
AcDbAssocArrayItem
 90
        0
 90
        5
 90
        0
 90
        0
 90
        8
 11
214.1371185504938
 21
0.0
 31
0.0
330
102EC
 40
1.0
 40
0.0
 40
0.0
 40
239.0983660355312
 40
0.0
 40
1.0
 40
0.0
 40
-160.457655853728
 40
0.0
 40
0.0
 40
1.0
 40
0.0
 40
0.0
 40
0.0
 40
0.0
 40
1.0
  0
ACDBASSOCDEPENDENCY
  5
102F0
330
102EE
100
AcDbAssocDependency
 90
        2
 90
        0
290
     0
290
     1
290
     1
290
     1
 90
        0
330
102E5
290
     0
330
0
330
0
360
0
 90
        1
  0
ACDBASSOCDEPENDENCY
  5
102F1
330
102EE
100
AcDbAssocDependency
 90
        2
 90
        0
290
     1
290
     0
290
     1
290
     1
 90
        0
330
102DF
290
     0
330
0
330
0
360
0
 90
        2
  0
ACDBASSOCDEPENDENCY
  5
102F2
330
102EE
100
AcDbAssocDependency
 90
        2
 90
        0
290
     1
290
     1
290
     1
290
     1
 90
-2147483648
330
10217
290
     0
330
0
330
0
360
0
 90
        3
  0
ACDBASSOCVERTEXACTIONPARAM
  5
102F3
330
102EE
100
AcDbAssocActionParam
 90
        1
 90
        0
  1
BaseNormal
100
AcDbAssocSingleDependencyActionParam
 90
        0
330
0
100
AcDbAssocVertexActionParam
 90
        0
 10
0.0
 20
0.0
 30
1.0
  0
ACDBASSOCVERTEXACTIONPARAM
  5
102F4
330
102EE
100
AcDbAssocActionParam
 90
        1
 90
        0
  1
Origin
100
AcDbAssocSingleDependencyActionParam
 90
        0
330
0
100
AcDbAssocVertexActionParam
 90
        0
 10
0.0
 20
0.0
 30
0.0
  0
ACDBASSOCVERTEXACTIONPARAM
  5
102F5
330
102EE
100
AcDbAssocActionParam
 90
        1
 90
        0
  1
basePoint
100
AcDbAssocSingleDependencyActionParam
 90
        0
330
0
100
AcDbAssocVertexActionParam
 90
        0
 10
0.0
 20
0.0
 30
0.0
  0
ENDSEC
  0
SECTION
  2
ACDSDATA
 70
     2
 71
     8
  0
ACDSSCHEMA
 90
        0
  1
AcDb_Thumbnail_Schema
  2
AcDbDs::ID
280
    10
 91
        8
  2
Thumbnail_Data
280
    15
 91
        0
101
ACDSRECORD
 95
        0
 90
        1
  2
AcDbDs::TreatedAsObjectData
280
     1
291
     1
101
ACDSRECORD
 95
        0
 90
        2
  2
AcDbDs::Legacy
280
     1
291
     1
101
ACDSRECORD
  1
AcDbDs::ID
 90
        3
  2
AcDs:Indexable
280
     1
291
     1
101
ACDSRECORD
  1
AcDbDs::ID
 90
        4
  2
AcDbDs::HandleAttribute
280
     7
282
     1
  0
ACDSSCHEMA
 90
        1
  1
AcDbDs::TreatedAsObjectDataSchema
  2
AcDbDs::TreatedAsObjectData
280
     1
 91
        0
  0
ACDSSCHEMA
 90
        2
  1
AcDbDs::LegacySchema
  2
AcDbDs::Legacy
280
     1
 91
        0
  0
ACDSSCHEMA
 90
        3
  1
AcDbDs::IndexedPropertySchema
  2
AcDs:Indexable
280
     1
 91
        0
  0
ACDSSCHEMA
 90
        4
  1
AcDbDs::HandleAttributeSchema
  2
AcDbDs::HandleAttribute
280
     7
 91
        1
284
     1
  0
ACDSRECORD
 90
        0
  2
AcDbDs::ID
280
    10
320
10055
  2
Thumbnail_Data
280
    15
 94
     1368
310
89504E470D0A1A0A0000000D49484452000001000000007A080300000067627D4700000300504C5445212830FFFFFF2128300000000000000000000000000000000000000000000000000000330000660000990000CC0000FF0033000033330033660033990033CC0033FF0066000066330066660066990066CC0066FF0099
310
000099330099660099990099CC0099FF00CC0000CC3300CC6600CC9900CCCC00CCFF00FF0000FF3300FF6600FF9900FFCC00FFFF3300003300333300663300993300CC3300FF3333003333333333663333993333CC3333FF3366003366333366663366993366CC3366FF3399003399333399663399993399CC3399FF33CC00
310
33CC3333CC6633CC9933CCCC33CCFF33FF0033FF3333FF6633FF9933FFCC33FFFF6600006600336600666600996600CC6600FF6633006633336633666633996633CC6633FF6666006666336666666666996666CC6666FF6699006699336699666699996699CC6699FF66CC0066CC3366CC6666CC9966CCCC66CCFF66FF0066
310
FF3366FF6666FF9966FFCC66FFFF9900009900339900669900999900CC9900FF9933009933339933669933999933CC9933FF9966009966339966669966999966CC9966FF9999009999339999669999999999CC9999FF99CC0099CC3399CC6699CC9999CCCC99CCFF99FF0099FF3399FF6699FF9999FFCC99FFFFCC0000CC00
310
33CC0066CC0099CC00CCCC00FFCC3300CC3333CC3366CC3399CC33CCCC33FFCC6600CC6633CC6666CC6699CC66CCCC66FFCC9900CC9933CC9966CC9999CC99CCCC99FFCCCC00CCCC33CCCC66CCCC99CCCCCCCCCCFFCCFF00CCFF33CCFF66CCFF99CCFFCCCCFFFFFF0000FF0033FF0066FF0099FF00CCFF00FFFF3300FF3333
310
FF3366FF3399FF33CCFF33FFFF6600FF6633FF6666FF6699FF66CCFF66FFFF9900FF9933FF9966FF9999FF99CCFF99FFFFCC00FFCC33FFCC66FFCC99FFCCCCFFCCFFFFFF00FFFF33FFFF66FFFF99FFFFCCFFFFFF0000000D0D0D1A1A1A2828283535354343435050505D5D5D6B6B6B787878868686939393A1A1A1AEAEAEBB
310
BBBBC9C9C9D6D6D6E4E4E4F1F1F1FFFFFF0000000000000000000000000000000000000000000000000000000000002E4550F1000001F24944415478DAED9BC17283300C44FDFFFFAB7BA72D01636F8891935688F70EA96685188CD30C3B3B94020000000000F009CC44A9AA4951B603ACDE8AB5A5AA2645D90EB2F9BFDBB1
310
95EA635294ED08EBDFFE6CA5AA2645D90EB47EAB4B554D8AB21D65FD66B62B553529CA7690F52F9752FD878A6A5294ED3037A02D553529CA76982FC0FA1DDD57A6DA3E51B643DD809F6BFCFEACAFD6F6EDA5D98B4F8EB4B6DD9C3DD24FC07A03CA7A89EB4F56231625DA0B51B643AC7FD9A865EFAAEA71B57624964AB4A323
310
753BC423F09E5E397BC0D1918D14C909585B7D4294ED7C6ED0359EC60DBAC6F3B841D7782237E81A4FE4065DE389DCA06B3C911B748D677283AEF1906ED05CC66FD44CC676839DDD1B347EE36632B81BECECDEB8F11B349301DDA0C3C42937386826F70E32A01B3C63F7A68703BAC17113E7156FE006AF9A0DD61B664FAB49
310
51B613B941B2C1F327CAE406C9060BD920D9E0B913C5748364836483B7CB06D787F3AA32D57EECE3F634531D697630AEDB21DDE01F92D40C5D351A7B8F19728DE7314344638EF144668868CC319EC80C118D118D118D118D118D118D5D381AEB6D6F5FBD41ECDA616E016F8DDD3D1932DB95AA9A14653B931922192A244324
310
43E74E14D30C910C910CF1D6186F8DF1D6D80DDF1A030000000000000000000000000000000000000080FFE10B6482F55DDEB584040000000049454E44AE42608200000000000000000080FFE10F1D590A7A4C5B33990000000049454E44AE426082
  0
ENDSEC
  0
EOF
